PrimaNota.ru - самый крупный в мире бесплатный архив песенных текстов, аккордов, табулатур и нот


The Seatbelts - Green Bird - таба, видео

Регистрация Запомнить меня
Войти через:  Facebook Google Twitter Vk Yandex Mail.ru

The Seatbelts - Green Bird - таба, видео

Печатать
Просмотров: 70
Greenbird: Written by Yoko Kanno, performed by the Seatbelts

This is my guitar arrangement for the song Green Bird from the Cowboy
Bebop soundtrack.
My version has a capo on the 5th fret and the D string is tuned up to an
E
(nice and akward), try not to break a string. I've tabbed it as if there
is no
capo, so where there is a 5 thats basically an open string (if you know
what i mean). 

E:-----------5-----------------5--------------5-6-8---------5-6-8----
B:--6------------8----6------------8-----6--8-------5--6--8----------
G:--10---5---9--------10---5---9---------10---5---9----10---5---9----
times 2
E:-------8-------8---------8-------8----------------8-------------8--
A:-------------------------------------------------------------------
E:-------------------------------------------------------------------

E:--5-5-6---5------------5-----------------------------------------------
B:--6-----7---8-8------6---8----6--6----5----6----5----6----5----6----5--
G:----8-7-5-7---------(5)-(5)-----5-5--5-5--5-5--5-5--5-5--5-5--5-5--5-5-
E:-------------------8---6------5-----6----5----6----5----6----5----6----
A:--------------10-------------------------------------------------------
E:-----------------------------------------------------------------------

E:-------5-----------5-------------5-6-8---------5-6-8---------------
B:--6-6-----8---6-6------8-----6-8-6-----5---6-8-6-----5-------------
G:---5-5--5-5-5--5-5---5-5-5-----5------5-5----5------5-5------------ times 2
E:--5----6--6---5----6---6-----5-------6-----5-------6---------------
A:-------------------------------------------------------------------
E:-------------------------------------------------------------------

E:--5-5-6---5------------5-------------------------------------------
B:--6-----7---8-8------6---8---6--6----5----6----5-------------------
G:----8-7-5-7---------(5)-(5)----5-5--5-5--5-5--5-5------------------
E:-------------------8---6-----5-----6----5----6---------------------
A:--------------10---------------------------------------------------
E:-------------------------------------------------------------------

E:--8-----5----------------------------------------------------------
B:-----6----5-8-6-5--5-5----6-6----5----6-6----5---------------------
G:----5-5--5-5---5-5--5-5h7--5-5--5-5h7--5-5--5-5-------------------- times 2
E:--5-----6-----5----6------5----6------5----6-----------------------
A:-------------------------------------------------------------------
E:-------------------------------------------------------------------

E:-------5-----------5-------------5-6-8---------5-6-8---------------
B:--6-6-----8---6-6------8-----6-8-6-----5---6-8-6-----5-------------
G:---5-5--5-5-5--5-5---5-5-5-----5------5-5----5------5-5------------ times 2
E:--5----6--6---5----6---6-----5-------6-----5-------6---------------
A:-------------------------------------------------------------------
E:-------------------------------------------------------------------

E:--5-5-6---5------------5-----------------------------------------------
B:--6-----7---8-8------6---8----6--6----5----6----5----6----5----6----5--
G:----8-7-5-7---------(5)-(5)-----5-5--5-5--5-5--5-5--5-5--5-5--5-5--5-5-fadeout
E:-------------------8---6------5-----6----5----6----5----6----5----6----
A:--------------10-------------------------------------------------------
E:-----------------------------------------------------------------------

The timing isn't shown very well but if you have any queries or comments
send
me an email at lame_microphone@yahoo.com
Thanks
Tom P Man

________________________________________________________________________________
     
Добавлено: 11.11.2013
Другие материалы по этой песне:

Страница создана 15.07.2012
http://primanota.ru/the-seatbelts/green-bird-chords.htm
Привет, Гость.
Предлагаем пройти революционный курс по гитаре.
Подарок от PrimaNota.Ru, забирай!