PrimaNota.ru - самый крупный в мире бесплатный архив песенных текстов, аккордов, табулатур и нот


The Rosenberg Trio - For Sephora - таба, видео

Регистрация Запомнить меня
Войти через:  Facebook Google Twitter Vk Yandex Mail.ru

The Rosenberg Trio - For Sephora - таба, видео

Печатать
Просмотров: 77
//-------------------------------------------------------------------------------------------//
                       For Sephora - Stochelo Rosenberg/Rosenberg trio
//-------------------------------------------------------------------------------------------//
Tabbed by: Kevin L.
E-mail: allsheeps@gmail.com
Date: May 8, 2015
//-------------------------------------------------------------------------------------------//
One of the Gypsy Jazz standards.
There are many ways to play it, this is just one of them.

I've tabbed out the melody simply. Only with a few hammer/pull & slide embellishments.  
Add your own touches to where you see fit.

This is in a lead style similar to this version of the song.
https://www.youtube.com/watch?v=uOC-xZOWFnc

Chords used similarly from this version
https://www.youtube.com/watch?v=g_dvQ2I5nJE

Enjoy!
===============================================================================================
Tuning: Standard EADGBe
Parts:
    [1] Lead Guitar
    [2] Rhythm guitar
Song structure:
    Intro
    Part [A]
    Part [B]
Chords:  Gypsy Jazz style (for the most part)
    EADGBe
Am7 5x55xx 
B7  7x78xx 
CM7 x35453
D7  x545xx
Em  x79987
E7  x767xx
GM7 3x443x


========================================[1] Lead guitar========================================

Intro
e||----------------------------12--11--10--9----------------|
B||--7--4--5--2---7--4--5--2---12--12--12--12---5--4--3--2--|
G||--4--4--4--4---4--4--4--4---12--12--12--12---4--4--4--4--|
D||--5--5--5--5---5--5--5--5--------------------5--5--5--5--|
A||---------------------------------------------------------|
E||---------------------------------------------------------|
   Figure/Use your own rhythm


Part [A] 
              Em                 Am                        B7                         Em
e|-------|-----------------------------------------------------------8--8-----------8-10-7--|
B|-----8-|-7------------------------------------------------7-------7---7-----7-10----------|
G|-------|---9---------------------------------------------9--8----8----8---8---------------|
D|-8-9---|-----9--------------------7/9999--7-6-7---7-9-10--------7-------------------------|
A|-------|-------10-9h10p9---7-6-7----------------------------------------------------------|
E|-------|----------------------------------------------------------------------------------|
  Pick up   

   B7                       E7
e|--8-7-------------------:|--8-7-------|
B|------10-7------------8-:|------10-9--|
G|-----------8------------:|------------|
D|------------9-8-7-8-9---:|------------|
A|------------------------:|------------|
E|------------------------:|------------|
   1st ending                 2nd ending


Part [B]
Am              D7          Gmaj7                  Cmaj7             

e|-7-8-7---------------------7--------------------------------------|
B|------8-----------------10---10-7----------------8--10--8--7-----8|
G|-----------7/9/7-----------------7---------------------------9---9|
D|--------9--------9-10--------------9/10/9--7--9-------------------|
A|------------------------------------------------------------------|
E|------------------------------------------------------------------|
 
   Am          B7           Em      B7        Am          B7           Em      B7
e|----------------------------8-7-------:|----10-9-8-7-----------------------------------||
B|-8-8-8-7-6-7-7-7-7-8-10-12------10-9--:|--7----------10-8-7-----7--8/10-10-10-10-8-7-8-||
G|-9-9-9-8-7-8-8-8-8-9-11-12------------:|--------------------8-9----9/11-11-11-11-9-8-9-||
D|--------------------------------------:|-----------------------------------------------||
A|--------------------------------------:|-----------------------------------------------||
E|--------------------------------------:|-----------------------------------------------||
    1st ending                                2nd ending




=======================================[2] Rhythm guitar========================================
(Figure/Use your own rhythm)


Part [A]
    Em   %   Am7 %   B7  %   Em  B7    
e|---7---7-------------------7-------|
B|---8---8-------------------8-------|
G|---9---9---5---5---8---8---9---8---|
D|---9---9---5---5---7---7---9---7---|
A|---7---7---x---x---x---x---7---x---|
E|---x---x---5---5---7---7---x---7---|

    Em   %   Am7 %   B7  %   Em  E7    
e|---7---7-------------------7-------|
B|---8---8-------------------8-------|
G|---9---9---5---5---8---8---9---7---|
D|---9---9---5---5---7---7---9---6---|
A|---7---7---x---x---x---x---7---7---|
E|---x---x---5---5---7---7---x---x---|


==Part [B]==

    Am7  D7 GM7 CM7  Am7 B7  Em  E7    
e|---------------3-----------7-------|
B|-----------3---5-----------8-------|
G|---5---5---4---4---5---8---9---7---|
D|---5---4---4---5---5---7---9---6---|
A|---x---5---x---3---x---x---7---7---|
E|---5---x---3---x---5---7---x---x---|

    Am7  D7 GM7 CM7  Am7 B7  Em  B7    
e|---------------3-----------7-------|
B|-----------3---5-----------8-------|
G|---5---5---4---4---5---8---9---8---|
D|---5---4---4---5---5---7---9---7---|
A|---x---5---x---3---x---x---7---x---|
E|---5---x---3---x---5---7---x---7---|


************************************************************************************************
|  /  slide up
|  \  slide down
|  x  mute
|  %  repeat segment
|  h  hammer on
|  p  pull off
************************************************************************************************
Добавлено: 29.12.2015
Вам также может быть интересно:
Другие материалы по этой песне:

Страница создана 02.04.2012
http://primanota.ru/the-rosenberg-trio/for-sephora-chords.htm
Привет, Гость.
Предлагаем пройти революционный курс по гитаре.
Подарок от PrimaNota.Ru, забирай!