PrimaNota.ru - самый крупный в мире бесплатный архив песенных текстов, аккордов, табулатур и нот


The Pogues - A rainy night in soho banjo - таба, видео

Регистрация Запомнить меня
Войти через:  Facebook Google Twitter Vk Yandex Mail.ru

The Pogues - A rainy night in soho banjo - таба, видео

Печатать
Просмотров: 71


A RAINY NIGHT IN SOHO
THE POGUES
BANJO TAB
    C
D|----------2------2--------------2-------2------|
B|------1--------------1------1---------------1--|
G|--0----------------------0---------------------|
D|-----------------------------------------------|
G|--------------0---------------------0----------|

    F                      G
D|----------3------3--------------0-------0------|
B|------1--------------1------0---------------0--|
G|--2----------------------0---------------------|
D|-----------------------------------------------|
G|--------------0---------------------0----------|


Добавлено: 19.12.2013
Другие материалы по этой песне:
  • Аккорды и текст

Страница создана 19.12.2013
http://primanota.ru/the-pogues/a-rainy-night-in-soho-banjo-chords.htm
Привет, Гость.
Предлагаем пройти революционный курс по гитаре.
Подарок от PrimaNota.Ru, забирай!