PrimaNota.ru - самый крупный в мире бесплатный архив песенных текстов, аккордов, табулатур и нот


The Pogues - Young ned of the hill mandolin - таба, видео

Регистрация Запомнить меня
Войти через:  Facebook Google Twitter Vk Yandex Mail.ru

The Pogues - Young ned of the hill mandolin - таба, видео

Печатать
Просмотров: 74


YOUNG NED OF THE HILL
the pogues
mandolin tab
tab by greg morris
part 1a
E|-----|--------1----------|--------------------|--------1-----1---|-1-3-8-8-6-3-----|
A|---1-|-3--5-6---5-1----1-|-3--5-3-1---------1-|-3--5-6---5-6---6-|-----------------|
D|-5---|---------------5---|-----------5-3-5----|------------------|-----------------|
G|-----|-------------------|--------------------|------------------|-----------------|

E|-1-3-8-8-6-3-------------|-1-------------|--------1---------|---3-1---------------|
A|-----------------3-3-5-6-|---653-5-1---1-|-3--5-6---5-1---1-|-3-----5-1-3-------1-|
D|-------------------------|-----------5---|--------------5---|-----------------5---|
G|-------------------------|---------------|------------------|---------------------|

 Part 1b
E|--------1----------|--------------------|--------1------1---|-1-3-8-8-6-3--------|
A|-3--5-6---5-1----1-|-3--5-3-1---------1-|-3--5-6----5-6---6-|--------------------|
D|---------------5---|------------5-3-5---|-------------------|--------------------|
G|-------------------|--------------------|-------------------|--------------------|

E|-1-3-8-8-6-3------------|-1--------------|--------1------------|---3-1-------------|
A|----------------3-3-5-6-|---653-5-1----1-|-3--5-6----5-1-----1-|-3-----5-1-3-------|
D|------------------------|------------5---|----------------5----|-------------------|
G|------------------------|----------------|---------------------|-------------------|

  part 2
E|-------------|------------|-------------|----------|
A|--1----------|------------|--3--1-------|----------|
D|-----5--3--1-|--1-3---1-3-|--------5--3-|1---1-3---|
G|-------------|-5-----5----|-------------|--5-----5-|

  Intro = part 1a
  Verse's  = part 1a,1b amp; 2
  chorus   = part 1a,1b amp; 2



Добавлено: 03.01.2014
Другие материалы по этой песне:
  • Аккорды и текст

Страница создана 03.01.2014
http://primanota.ru/the-pogues/young-ned-of-the-hill-mandolin-chords.htm
Привет, Гость.
Предлагаем пройти революционный курс по гитаре.
Подарок от PrimaNota.Ru, забирай!