PrimaNota.ru - самый крупный в мире бесплатный архив песенных текстов, аккордов, табулатур и нот


The Pogues - Sally Maclennane - текст песни, бас-таба, видео

Регистрация Запомнить меня
Войти через:  Facebook Google Twitter Vk Yandex Mail.ru

The Pogues - Sally Maclennane - текст песни, бас-таба, видео

Печатать
Просмотров: 115
Авторы музыки: Shane MacGowan

Bit of a simplified version


Intro

|--------------------|
|-5-5----------------|
|-----5-5---7-5------|
|---------5-----5----|

Verse


 Jimmy played harmonica.....
|------------------------------------------------------------------|
|------------------------------------------------------------------|
|-5---5-----5-5---5---5-------------5---5-5-------5-5---------5-5--|
|---5---5-3-----5---5---5-3-0-5-5-3---3-----3-5-5-----3-3-5-4------| Repeat


Run into Chorus

We walked him to the station.......
|-------------------------------------------------------------------|
|-------------------------------------------------------------------|
|---7-5---5---5-----7-5---------------5-5-5-------5-5-----5---5-----|
|-5-----5---5---5-5-----3-5-3-5-3-3-0-------3-5-3-----3-5---5---5---|



Chorus
  
Sad to say.....                                                          
|-------------------4-------------------------------4--------------|
|---4-7-4---4-7-4-5-----4-----------4-7-4---4-7-4-5-----4----------|
|-5-------5-----------5-----4-7-4-5-------5-----------5-----7-5-5--|
|-------------------------5-------------------------------5--------|

DancingDog :)           
Добавлено: 24.09.2013
Другие материалы по этой песне:

Страница создана 25.03.2012
http://primanota.ru/the-pogues/sally-maclennane-chords.htm
Привет, Гость.
Предлагаем пройти революционный курс по гитаре.
Подарок от PrimaNota.Ru, забирай!