PrimaNota.ru - самый крупный в мире бесплатный архив песенных текстов, аккордов, табулатур и нот


The Living Tombstone - Five Nights At Freddys 2 - таба, видео

Регистрация Запомнить меня
Войти через:  Facebook Google Twitter Vk Yandex Mail.ru

The Living Tombstone - Five Nights At Freddys 2 - таба, видео

Печатать
Просмотров: 361
The only part not in this song is the solo, I really tried but couldn't get it down to the precise noting.
Plus it was way too fast to do on acoustic and still have fingers afterwards.
-------------------------------------------------------------------------------
                             Five Nights at Freddy's 2 Song
-------------------------------------------------------------------------------
Tuning: Standard

Intro:
e|1----1---------------------------------------------------------------------|
B|--4------4--4---2--4---2---2---1-------1---2---4---1-----------------------|
G|-----------------------------------2-------------------2---3---------------|
D|---------------------------------------------------------------------------|
A|---------------------------------------------------------------------------|
E|---------------------------------------------------------------------------|

Opening:
e|1-1-1-1-1-1--------1---------1-2-----1-2-1------|--4-1-----4-1------6-4-1---
B|------------4--2-4---2-4---2-----2-4-------4-2--|------4-2-----4-2--------2-
G|--------------1----------3----------------------|---------------------------
D|------------------------------------------------|---------------------------
A|------------------------------------------------|---------------------------
E|------------------------------------------------|---------------------------

e|2-1-----1-2-----1-2------|1-1-1-1-1-1-----------1-------1-2-1-----1-2-1-----
B|----2-2-----2-4-----4-2--|------------4-----2-4---2-4-2-------2-4-------4-2-
G|-------------------------|--------------1-1---------------------------------
D|-------------------------|--------------------------------------------------
A|-------------------------|--------------------------------------------------
E|-------------------------|--------------------------------------------------

e|---4-1----4-1-----6-4-1---2-1-----1-2-1-----1-2----------------------------|
B|-2----4-2----4-2--------2-----2-2-------2-4-----4-2------------------------|
G|---------------------------------------------------------------------------|
D|---------------------------------------------------------------------------|
A|---------------------------------------------------------------------------|
E|---------------------------------------------------------------------------|

Chorus:
e|6-9-11-8---6-9-6-7-6-10-7-7-6-4-2--2-2-1-2-1-------------------------------|
B|---------------------------------------------2-4-2-------------------------|(Repeat once)
G|---------------------------------------------------------------------------|
D|---------------------------------------------------------------------------|
A|---------------------------------------------------------------------------|
E|---------------------------------------------------------------------------|

Middle:
e|1-1-1-1-1-1-1-----------1-----------1-2-1-----1-2-1---------4-1-----4-1----|
B|--------------4-----2-4---2-4-2---2-------2-4-------4-2--2------4-2-----4-2|
G|----------------1-1-------------3------------------------------------------|
D|---------------------------------------------------------------------------|
A|---------------------------------------------------------------------------|
E|---------------------------------------------------------------------------|

e|6-4-1---2-1---1-2-1-----1-2-1-----|-1-1-1-1-1-1-----------1---------1-2-1--|
B|------2-----2-------2-4-------4-2-|-------------4-----2-4---2-4---2--------|
G|----------------------------------|---------------1-1-----------3----------|
D|----------------------------------|----------------------------------------|
A|----------------------------------|----------------------------------------|
E|----------------------------------|----------------------------------------|

e|-----------4-1------4-1-------6-4-1---2-1-----1-2-1-----1-2-1--------------|
B|4-2------2-----4-2------4-2---------2-----2-2-------2-4-------4-2----------|
G|---------------------------------------------------------------------------|
D|---------------------------------------------------------------------------|
A|---------------------------------------------------------------------------|
E|---------------------------------------------------------------------------|

Chorus:
e|6-9-11-8---6-9-6-7-6-10-7-7-6-4-2--2-2-1-2-1-------------------------------|
B|---------------------------------------------2-4-2-------------------------|
G|---------------------------------------------------------------------------|
D|---------------------------------------------------------------------------|
A|---------------------------------------------------------------------------|
E|---------------------------------------------------------------------------|

e|6-9-11-8---6-9-6-7-6-10-7-7-6-4-2--2-2-1-2-1-------------------------------|
B|---------------------------------------------2-4-2-------------------------|
G|---------------------------------------------------------------------------|
D|---------------------------------------------------------------------------|
A|---------------------------------------------------------------------------|
E|---------------------------------------------------------------------------|

Outro:
e|----1-----1-------1-----4--2-6-9--2-5-11--1-4-9--1---------1------1-----1--|
B|--2-----2-------2-----2----------------------------4-2---2------2-----2----|
G|3-----3-------4-----4----------------------------------1------1-----4------|
D|---------------------------------------------------------------------------|
A|---------------------------------------------------------------------------|
E|---------------------------------------------------------------------------|

e|----4----2-6-9--2-5-11--4-6-2-1--------------------------------------------|
B|--2-----------------------------4-2-1-2------------------------------------|
G|4--------------------------------------------------------------------------|
D|---------------------------------------------------------------------------|
A|---------------------------------------------------------------------------|
E|---------------------------------------------------------------------------|


Добавлено: 11.10.2015
Вам также может быть интересно:
Другие материалы по этой песне:
  • Аккорды и текст

Страница создана 11.10.2015
http://primanota.ru/the-living-tombstone/five-nights-at-freddys-2-chords.htm
Привет, Гость.
Предлагаем пройти революционный курс по гитаре.
Подарок от PrimaNota.Ru, забирай!