PrimaNota.ru - самый крупный в мире бесплатный архив песенных текстов, аккордов, табулатур и нот


The Living Tombstone - Five Nights At Freddys 1 Song - таба, бас-таба, видео

Регистрация Запомнить меня
Войти через:  Facebook Google Twitter Vk Yandex Mail.ru

The Living Tombstone - Five Nights At Freddys 1 Song - таба, бас-таба, видео

Печатать
Просмотров: 388
Уроки эстрадного вокала в Санкт-Петербурге
FNaF Song by Night of the Living Tombstone Tab

INTRO
e|--------------------------------------------------------|
B|-12-14-12-----------------------------12----------------|
G|----------13-13-13-11-13-14-13---14-11--13-------11-----|
D|--------------------------------------------14-11---10~\|
A|--------------------------------------------------------|
E|--------------------------------------------------------|

VERSE
e|-0-------0---------------------------------------------------------------|
B|---4-2-0-----0h2p0-------------------------------------------------------|
G|-----------1-------2-1---1---------2-1---1----------2-1------------------|
D|-----------------------4-----2~--4-----4-----2--2h4-----4-2-1------------|
A|---------------------------4---------------4------------------4-6-4------|
E|-------------------------------------------------------------------------|

e|-0---------0--------------------------------------------------------------|
B|---4-2-2-0------0h2p0--------------------------------------------0-1------|
G|--------------1-------2-1---1-----------2-1---1----------2-1---2----------|
D|--------------------------4-----2~----4-----4-----2--2-4-----4------------|
A|------------------------------4-----4-----------4-------------------------|
E|--------------------------------------------------------------------------|

Pre-chorus
e|-4-4p2p0-2p0--4-4p2p0-2p0--4-4p2p0-2-4h5p4p0--0-0-0-----0-0-0-0-0----------|
B|----------------------------------------------------2-2-----------2-2------|
G|---------------------------------------------------------------------------|
D|---------------------------------------------------------------------------|
A|---------------------------------------------------------------------------|
E|---------------------------------------------------------------------------| 

e|-0-0-0---0h2----------4-4p2p0-2p0--4-4p2p0-2p0--4-4p2p0-2-4h5p4p0-0-0-0-----|
B|-------2-----4-2-5p4----------------------------------------------------2-2-|
G|----------------------------------------------------------------------------|
D|----------------------------------------------------------------------------|
A|----------------------------------------------------------------------------|
E|----------------------------------------------------------------------------|

e|-0-0-0-0-0-----0-0-0-------------------------------------------------------|
B|-----------2-2-------2-5h7-4-----------------------------------------------|
G|---------------------------------------------------------------------------|
D|---------------------------------------------------------------------------|
A|---------------------------------------------------------------------------|
E|---------------------------------------------------------------------------| 

Chorus X2
e|-4-4-5-2-0--0-0-2-4-4-4-5-2-0--0-0-0-0-2-----------------------------------|
B|-----------------------------------------4---------------------------------|
G|---------------------------------------------------------------------------|
D|---------------------------------------------------------------------------|
A|---------------------------------------------------------------------------|
E|---------------------------------------------------------------------------|


Interlude
e|-4-4-5-2-0---0------0------0--------------0------0------0--------------------|
B|-------------5-4-2--6-3-1--5-4-0-2--5h7---5-4-2--5-3-1--5-4-0-2-5h7~---------|
G|-------------6------7------2--------------6------1------2--------------------|
D|-------------6------7------2--------------6------2------2--------------------|
A|-------------4-------------0--------------4------2------0--------------------|
E|-----------------------------------------------------------------------------|
Repeat Verse
Repeat Pre-chorus
Repeat Chorus
Repeat Bridge

This song is based off of the vocals and the instrumental intro and interlude.
yay

 By Recon47
Добавлено: 11.10.2015
Другие материалы по этой песне:
  • Аккорды и текст

Страница создана 11.10.2015
http://primanota.ru/the-living-tombstone/five-nights-at-freddys-1-song-chords.htm
Привет, Гость.
Предлагаем пройти революционный курс по гитаре.
Подарок от PrimaNota.Ru, забирай!