PrimaNota.ru - самый крупный в мире бесплатный архив песенных текстов, аккордов, табулатур и нот


The Growlers - Uncle Sams A Dick - таба, видео

Регистрация Запомнить меня
Войти через:  Facebook Google Twitter Vk Yandex Mail.ru

The Growlers - Uncle Sams A Dick - таба, видео

Печатать
Просмотров: 90
                     Uncle Sam's A Dick - The Growlers
         
                     New sickass song by these dudes, 
            check it - http://www.youtube.com/watch?v=W62-sJJ9ZxE



    Intro 0:21-0:45
          played 3 times

    e|--/3-----------8---6----8---------/3--------8---6----3--------|
    b|--/4-----------8---6----8---------/4--------8---6----3--------|
    g|--------------------------------------------------------------|
    D|--------------------------------------------------------------|
    A|--------------------------------------------------------------|
    E|--------------------------------------------------------------|


    
    0:45-0:59
    played twice

    e|--------------------------------------------------------------|
    b|----------------------------------------4-4-4-----------------|
    g|-------------------------5-5-5-3--3-3-3-------5~--------------|
    D|---------5-5-5-3---3-3-3--------------------------------------|
    A|--3--3-3------------------------------------------------------|
    E|--------------------------------------------------------------|


    1:01-1:16, repeat intro twice


    1:17-1:30
                       
    e|--------------------------------------------------------------|
    b|--------------------------------------------------------------|
    g|--------------------------------------------------------------|
    D|--------------------------------------------------------------|
    A|-3~------------1-1-1-1h3-3-3--x3------------------------------|
    E|--------------------------------------------------------------|
                       


    1:33-1:37

    e|--------------------------------------------------------------|
    b|--5--5--3--3--------------------------------------------------|
    g|--------------5--5--4--4--------------------------------------|
    D|--------------------------------------------------------------|
    A|--------------------------------------------------------------|
    E|--------------------------------------------------------------|



    1:37-1:53, repeat intro twice

    1:53-2:07, repeat riff in 0:45-0:59 twice


   
    Solo 2:10-2:25
    played twice

    e|--------------------------------------------------------------|
    b|---5------------4-4-------------5-----------------------------|
    g|---5---5--3--5------5--3--5-3---5--5--3-5--3--5--3------------|
    D|---------------------------------------------------5---4------|
    A|--------------------------------------------------------------|
    E|--------------------------------------------------------------|


    2:26-2:40, repeat riff in 1:53-2:07 twice

    2:41-2:45, repeat riff in 1:33-1:37
                       
    2:46-3:02, repeat intro

    end with:                   

    e|--------------------------------------------------------------|
    b|--------------------------------------------------------------|
    g|--------------------------------------------------------------|
    D|--------4h5~--------------------------------------------------|
    A|--------------------------------------------------------------|
    E|--------------------------------------------------------------|
                       
    key
    h= hammer on
    ~= let ring
    /= slide down
Добавлено: 27.07.2013
Другие материалы по этой песне:
  • Аккорды и текст

Страница создана 08.07.2013
http://primanota.ru/the-growlers/uncle-sams-a-dick-chords.htm
Привет, Гость.
Предлагаем пройти революционный курс по гитаре.
Подарок от PrimaNota.Ru, забирай!