PrimaNota.ru - самый крупный в мире бесплатный архив песенных текстов, аккордов, табулатур и нот


The Growlers - Wandering Eyes - таба, видео

Регистрация Запомнить меня
Войти через:  Facebook Google Twitter Vk Yandex Mail.ru

The Growlers - Wandering Eyes - таба, видео

Печатать
Просмотров: 98
Уроки эстрадного вокала в Санкт-Петербурге

                                           |_ 0 S

                 _____
                 |        ____ ____             |       ____ ____   /\
                 |  ____  |__| |  |  \        / |      |     |__|  / /
                 |______\ | \  |  |   \  /\  /  |      |___  | \   \
                          |  \ |__|    \/  \/   |_____ |     |  \   \
                                                       |______       \
     COOL SONG, HERE IT IS                                         / /
                                                                   \/

     I SUGGEST PLAYING WITH THE SONG:
     http://www.youtube.com/watch?v=Kdx9KhNU0Kc


...........................WANDERING EYES...................................



     INTRO:

     THIS IS THE MAIN RIFF, PLAYED THROUGHOUT THE INTRO

    e|---3-----3--5--6--5---3---3-------------------------------------------|
    b|-----------------------------6/8--6--3---3----------------------------|
    g|--------------------------------------------5/7--5---------3--5-------|
    D|----------------------------------------------------5---5-------------|
    A|----------------------------------------------------------------------|
    E|----------------------------------------------------------------------|

     AFTER THE MAIN RIFF IS PLAYED 5 TIMES, YOU'LL HEAR THE RHYTHM GUITAR
     START TO PLAY THESE CHORDS WHEN THE CHORUS COMES IN:

           THE STRUMMING PATTERN IS EASY TO HEAR

    e|--3-----------------------3-------------------3--2/3------------------|
    b|--4-----------------------3-------------------4--3/4------------------|
    g|--5-----------------------4-------------------5--4/5------------------|
    D|--5-----------------------5-------------------5--4/5------------------|
    A|--3-----------------------5-------------------3--2/3------------------|
    E|--3-----------------------3-------------------3--2/3------------------|


     AFTER THE CHORUS, THE MAIN RIFF CHANGES A TINY BIT:


    e|---8-----3--5--6--5---3---3-------------------------------------------|
    b|---8--------------------------6/8--6--3---3---------------------------|
    g|--------------------------------------------5/7--5---------3--5-------|
    D|----------------------------------------------------5---5-------------|
    A|----------------------------------------------------------------------|
    E|----------------------------------------------------------------------|


     THE CHORUS IS REPEATED, THEN THE RIFF ABOVE, THEN CHORUS, THEN THIS:


    e|------------------------------3--3-3-3--3--3-3-3----------------------|
    b|--------------------3--3-3-3---------------------3--3-3-3--4-3---3----|
    g|----------3--3-3-3---------------------------------------------5---5-3|
    D|5--5-5-5--------------------------------------------------------------|
    A|----------------------------------------------------------------------|
    E|----------------------------------------------------------------------|

    e|------------------------------3--3-3-3--3--3-3-3----------------------|
    b|--------------------3--3-3-3---------------------3--3-3-3--4-3---3----|
    g|----------3--3-3-3---------------------------------------------5---5-3|
    D|5--5-5-5--------------------------------------------------------------|
    A|----------------------------------------------------------------------|
    E|----------------------------------------------------------------------|

    e|------------------------------------------15--15-15-15--15--15-15-15--|
    b|----------------------------15--15-15-15------------------------------|
    g|12--12-12-12--15--15-15-15--------------------------------------------|
    D|----------------------------------------------------------------------|
    A|----------------------------------------------------------------------|
    E|----------------------------------------------------------------------|

    e|----------------------------------------------------------------------|
    b|15--15-15-15--16-15-13-15-13---------------------------------15--15-15|
    g|-----------------------------15--12--12-12-12--15--15-15-15-----------|
    D|----------------------------------------------------------------------|
    A|----------------------------------------------------------------------|
    E|----------------------------------------------------------------------|

    e|----15--15-15-15--15--15-15-15-----------------------------------15~--|
    b|15------------------------------15--15-15-15--16-15-13-15-13----------|
    g|-------------------------------------------------------------15-------|
    D|----------------------------------------------------------------------|
    A|----------------------------------------------------------------------|
    E|----------------------------------------------------------------------|

    e|15-13-15~----15-13-15--------------------------15~---15-13-15~--------|
    b|-----------------------15---16-15-13-15-13----------------------------|
    g|-------------------------------------------15-------------------------|
    D|----------------------------------------------------------------------|
    A|----------------------------------------------------------------------|
    E|----------------------------------------------------------------------|

    e|15-13-15-------------------------|---------10~----------------10~-----|
    b|----------15---16-15-13-15-13----|----11~----11~---------11~------11~-|
    g|------------------------------15-|--12~----------12~---12~------------|
    D|---------------------------------|------------------------------------|
    A|---------------------------------|------------------------------------|
    E|---------------------------------|------------------------------------|
                                       |                                    |
                                       | ^^^^^THIS PART HERE IS^^^^^        |
                                       | RINGED OUT **6 TIMES**, THEN THIS: |
                                       |____________________________________|

    e|--11--10--8--10--8--6--8--6--5-6--5---| <---- LACE THIS PART WITH THE
    b|--------------------------------------|       MAIN INTRO RIFF
    g|--------------------------------------|
    D|--------------------------------------|
    A|--------------------------------------|
    E|--------------------------------------|       THE END.


   KEY - / = SLIDE UP
         ~ = LET RING
Добавлено: 11.09.2013
Другие материалы по этой песне:
  • Аккорды и текст

Страница создана 11.09.2013
http://primanota.ru/the-growlers/wandering-eyes-chords.htm
Привет, Гость.
Предлагаем пройти революционный курс по гитаре.
Подарок от PrimaNota.Ru, забирай!