PrimaNota.ru - самый крупный в мире бесплатный архив песенных текстов, аккордов, табулатур и нот


The Growlers - Monotonia - аккорды и текст, таба, видео

Регистрация Запомнить меня
Войти через:  Facebook Google Twitter Vk Yandex Mail.ru

The Growlers - Monotonia - аккорды и текст, таба, видео

Печатать
Просмотров: 459
Уроки эстрадного вокала в Санкт-Петербурге
Monotonia
The Growlers
The Growlers
Monotonia

Standard tuning
I recommend all chords as barree

Intro/Riff1                                                                      x2
e|--------------------|--------10----10-10-|--------10----10-13-|--------------------|
B|-------11----11--11-|-11-13----13--------|-11-13----13--------|--------11----11-13-|
G|-10-12----12--------|--------------------|--------------------|-10-12----12--------|
D|--------------------|--------------------|--------------------|--------------------|
A|--------------------|--------------------|--------------------|--------------------|
E|--------------------|--------------------|--------------------|--------------------|

e|-----------------------------------------------------------------|
B|-----------------------------------------------------------------|
G|-10/12-10----------10/12-10----10----------------10--------------|
D|----------12-12-------------12----12-12----10/12----12-10--------|
A|----------------------------------------------------------10-----|
E|-----------------------------------------------------------------|

Riff2
e|------------------------------------------------------|
B|------------------------------------------------------|
G|-----------------------------------------------10-----| 
D|----------------8----8-----10-12--10-12--10-12--------|
A|--10--10-12--12---12------------------------------10b-|
E|-----------------------10-----------------------------|

e|------------------------------------------------------|
B|------------------------------------------------------|
G|------------------------------------------------------| 
D|----------------8----8-12--10-12--10-12--10-12-12-----|
A|--10--10-12--12---12------------------------------10--|
E|------------------------------------------------------|

Gm                     A# 
   Nothing quite ever comes out right
A#                   D
   When you try to say something clean
Gm                              A#
   It's hard to hide from the thrashing nights
A#                        D
   Nobody cares about a junkie's dream

Gm                          A#
   More of a sucker than a fiend
                 A#            D
   It's hard to turn down a smiling friend
Gm                             A#
   When everything becomes a scene
                   A#               D
   You can't make old dreams brand new again



   Gm             A#
   Y la monotonía es un asesino lento
   G              A#
   Y la monotonía es un asesino lento
   Gm           D
   Un asesino lento



Gm                        A#
   Sleep will get in the way most times
A#                               D
   Dreams will lead you to the middle of nowhere
Gm                       A#
   Still rather hitch a ride on a dream
           A#                          D
   Than to rot with your thumb in the air



   Gm             A#
   Y la monotonía es un asesino lento
   G              A#
   Y la monotonía es un asesino lento
   Gm           D
   Un asesino lento


   Riff2

Gm                       A#
   Another cigarette, another stiff drink
A#                       D
   Getting tired of the same things
Gm                 A#
   Nobody needs another empty reason
A#                 D
   Just some to believe in


   Riff1


Gm                     A# 
   Nothing quite ever comes out right
A#                   D
   When you try to say something clean
Gm                              A#
   It's hard to hide from the thrashing nights
A#                        D
   Nobody cares about a junkie's dream

Gm                          A#
   More of a sucker than a fiend
                 A#            D
   It's hard to turn down a smiling friend
Gm                             A#
   When everything becomes a scene
                   A#               D
   You can't make old dreams brand new again



   Gm             A#
   Y la monotonía es un asesino lento
   G              A#
   Y la monotonía es un asesino lento
   Gm           D
   Un asesino lento


   Riff1

(slowly fading out from here)

 Gm        A#
   Asesino lento
   A#      D
   Aah-aah

 Gm        A#
   Asesino lento
   A#      D
   Aah-aah

 Gm        A#
   Asesino lento
   A#      D
   Aah-aah

 Gm        A#
   Asesino lento
   A#      D
   Aah-aah

You can end on Gm
Добавлено: 04.09.2015
Другие материалы по этой песне:
  • Аккорды и текст

Страница создана 19.02.2014
http://primanota.ru/the-growlers/monotonia-chords.htm
Привет, Гость.
Предлагаем пройти революционный курс по гитаре.
Подарок от PrimaNota.Ru, забирай!