PrimaNota.ru - самый крупный в мире бесплатный архив песенных текстов, аккордов, табулатур и нот


The Growlers - Acid Rain - таба, бас-таба, видео

Регистрация Запомнить меня
Войти через:  Facebook Google Twitter Vk Yandex Mail.ru

The Growlers - Acid Rain - таба, бас-таба, видео

Печатать
Просмотров: 154
                   

                              "Acid Rain"
                                   by
                              The Growlers


BASS INTRO:
e|---------------------------------|
B|---------------------------------| (This repeats
G|---------------------------------| throughout most
D|---------------------------------| of the song.)
A|----------------------2--0-------|
E|-3-3--0--3-3--0--3-3-------3-0---|

Guitar:
e|------3-x-x-3-x-3-x-3-3-3-------| (The "x" means mute
B|------3-x-x-3-x-3-x-3-3-3-------|  the strings. Not too sure
G|----4---x-x-4-x-4-x-4-4-4-------|  I'm getting the rhythm right,
D|--5-----x-x-5-x-5-x-5-5-5-------|  but thats the chord.)
A|--------------------------------|
E|--------------------------------|

(This next riff gets repeated throughout the VERSES.)
"Last night I dreamed that it rained."
e|-------------------------------------------------------------|
B|--8-8-7-7------------------------8-8-7-7---------------------| 
G|----------9-9-7-7-7/9-7--------7---------9-9-7-7-7/9-7-------|
D|------------------------9--7-9-------------------------9-----|
A|-------------------------------------------------------------|
E|-------------------------------------------------------------|

1st CHORUS:
e|--7-7-7-10-7--5-5-5-7-5--10/7-7-5------------|
B|----------------------------------8--5-8-----|
G|---------------------------------------------|
D|---------------------------------------------|
A|---------------------------------------------|
E|---------------------------------------------|


Verse 2:
"Since you went away, everything has been gay."
e|-------------------------------------------------------------|
B|--8-8-7-7------------------------8-8-7-7---------------------| 
G|----------9-9-7-7-7/9-7--------7---------9-9-7-7-7/9-7-------|
D|------------------------9--7-9-------------------------9-----|
A|-------------------------------------------------------------|
E|-------------------------------------------------------------|


2nd CHORUS:
e|--7-7-7-10-7--5-5-5-7-5-----------------------------|
B|--------------------------------------8-------------|
G|---------------------------/12/---7-9---9-7---------|
D|--------------------------------------------9-------|
A|----------------------------------------------------|
E|----------------------------------------------------|

e|------------7-7-----7-7-8-7-----------------|
B|------8-----7-7--------------------8-10-----|
G|----7--7/9--8-8----------------7-9----------|
D|--9---------9-9--------------9--------------|
A|--------------------------------------------|
E|--------------------------------------------|

e|------3-x-x-3-x-3-x-3-3-3-------|
B|------3-x-x-3-x-3-x-3-3-3-------|  
G|----4---x-x-4-x-4-x-4-4-4-------|  
D|--5-----x-x-5-x-5-x-5-5-5-------|  
A|--------------------------------|
E|--------------------------------|

3rd VERSE:
"Last night I dreamed that it rained."
e|-------------------------------------------------------------|
B|--8-8-7-7------------------------8-8-7-7---------------------| 
G|----------9-9-7-7-7/9-7--------7---------9-9-7-7-7/9-7-------|
D|------------------------9--7-9-------------------------9-----|
A|-------------------------------------------------------------|
E|-------------------------------------------------------------|

3rd CHORUS:
e|--7-7-7-10-7--5-5-5-7-5-----------------------------|
B|--------------------------------------8-------------|
G|---------------------------/12/---7-9---9-7---------|
D|--------------------------------------------9-------|
A|----------------------------------------------------|
E|----------------------------------------------------|

e|-------------------------------------------------------|
B|----------8----8-8-7-7-------------8-------------------|
G|----7--9---------------9-9-7-7-7/9---9-7-------7-------|
D|--9--------------------------------------9---9---9-----|
A|-------------------------------------------------------|
E|-------------------------------------------------------|

e|---------------------------------7-7-7-10-7--5-5-5-7-5--10-7-5---------|
B|--8-8-7-7-------------8----------------------------------------8--5-8--| 
G|----------9-9-7-7-7/9---9-7---7----------------------------------------|
D|----------------------------9------------------------------------------|
A|-----------------------------------------------------------------------|
E|-----------------------------------------------------------------------|


               http://www.youtube.com/watch?v=DPmN-GvOOMs


Добавлено: 28.07.2012
Другие материалы по этой песне:
  • Аккорды и текст

Страница создана 28.07.2012
http://primanota.ru/the-growlers/acid-rain-chords.htm
Привет, Гость.
Предлагаем пройти революционный курс по гитаре.
Подарок от PrimaNota.Ru, забирай!