PrimaNota.ru - самый крупный в мире бесплатный архив песенных текстов, аккордов, табулатур и нот


The Growlers - Beach Rats - таба, бас-таба, видео

Регистрация Запомнить меня
Войти через:  Facebook Google Twitter Vk Yandex Mail.ru

The Growlers - Beach Rats - таба, бас-таба, видео

Печатать
Просмотров: 227
Уроки эстрадного вокала в Санкт-Петербурге
Авторы: The Growlers

I am 95% sure this is right, and to get a feel for tempo follow the song here is a link 
http://www.youtube.com/watch?v=UdDTBMQsLVE


Verse x4
        Ebm                        F#                B            Bbm
    "My words are weak compared to the drug what can I really say to help..."

E|-----6-----6-----6-----6-----2-----2-----------2-----------1-----|
B|-----7-----7-----7-----7-----2-----2-----------4-----------2-----|
G|-----8-----8-----8-----8-----3-----3-----4-----------3-----------|
D|-----------------------------------------------------------------|
A|-----------------------------------------------------------------|
E|-----------------------------------------------------------------|

Chorus x2

             Db                           Abm                         F#
            "Beach rats , reckless days, foul-mouthed salty kids..."

E|-----4-----4-----4-----4-----4-----4-----2-----2-----|
B|-----6-----6-----6-----6-----4-----4-----2-----2-----|
G|-----6-----6-----6-----6-----4-----4-----3-----3-----|
D|-----------------------------------------------------|
A|-----------------------------------------------------|
E|-----------------------------------------------------|

Instrumental 1

      Ebm                                           Bbm                 Ab

E|-----------------------1-----2-----1-----------------------------------------|
B|-----4-----2-----4-----------------------4-----2-----------2-----------------|
G|-----------------------------------------------------3-----------1-----3-----|
D|-----------------------------------------------------------------------------|
A|-----------------------------------------------------------------------------|
E|-----------------------------------------------------------------------------|

        Ebm                                           Bbm                 Ab

E|-----------------------1-----2-----1-----------------------------------------|
B|-----4-----2-----4-----------------------4-----2-----------2-----------------|
G|-----------------------------------------------------3-----------1-----3-----|
D|-----------------------------------------------------------------------------|
A|-----------------------------------------------------------------------------|
E|-----------------------------------------------------------------------------|

Instrumental 2

        Ebm                                            Bbm                 Ab

E|-----------------------1-----2-----1-----------------------------------------|
B|-----4-----2-----4-----------------------4-----2-----------2-----------------|
G|-----------------------------------------------------3-----------1-----3-----|
D|-----------------------------------------------------------------------------|
A|-----------------------------------------------------------------------------|
E|-----------------------------------------------------------------------------|

        Ebm                                            Bbm                  Ab

E|-----------------------1-----2-----1-----------------------------------------|
B|-----4-----2-----4-----------------------4-----2-----------2-----------------|
G|-----------------------------------------------------3-----------1-----3-----|
D|-----------------------------------------------------------------------------|
A|-----------------------------------------------------------------------------|
E|-----------------------------------------------------------------------------|

        Ebm                                             Bbm                 Ab

E|------------------------------------------------------------------------------------|
B|-----------------------------------------------------------------2------------------|
G|-----------------------------------1-----3-----1-----------------------3-----1------|
D|-----4-----1-----4-----1-----4-----------------------4-----1------------------------|
A|------------------------------------------------------------------------------------|
E|------------------------------------------------------------------------------------|

        Ebm                                              Bbm                 Ab

E|------------------------------------------------------------------------------------|
B|-----------------------------------------------------------------2-----------2------|
G|-----------------------------------1-----3-----1-----------------------3------------|
D|-----4-----1-----4-----1-----4-----------------------4-----1------------------------|
A|------------------------------------------------------------------------------------|
E|------------------------------------------------------------------------------------|

Instrumental 3

       Ebm

E|-----------6-----------6-----------6-----------6-----|
B|-----------7-----------7-----------7-----------7-----|
G|-----8--------------8--------8--------------8--------|
D|-----------------------------------------------------|
A|-----------------------------------------------------|
E|-----------------------------------------------------|

       B                  Bb

E|-----------7-----9p7-----------6-----------6-----|
B|-----------7-----7-------------6-----------6-----|
G|-----8-----------8-------7--------------7--------|
D|-------------------------------------------------|
A|-------------------------------------------------|
E|-------------------------------------------------|

      Ebm

E|-----------6-----------6-----------6-----------6-----|
B|-----------7-----------7-----------7-----------7-----|
G|-----8--------------8--------8--------------8--------|
D|-----------------------------------------------------|
A|-----------------------------------------------------|
E|-----------------------------------------------------|

       B                        Bb

E|-----------7-----9p7-----------6---|
B|-----------7-----7-------------6---|
G|-----8-----------8-------------7---|
D|-----------------------------------|
A|-----------------------------------|
E|-----------------------------------|

Outro

        Ebm                           Bb

E|-----------2-----------4-----2-----------------------------------|
B|-----4-----------4-----------------------------------------------|
G|-----------------------------------3-----4-----3-----2-----3-----|
D|-----------------------------------------------------------------|
A|-----------------------------------------------------------------|
E|-----------------------------------------------------------------|

        Ebm                           Bb


E|-----------2-----------4-----2-----------------------------------------|
B|-----4-----------4-----------------------------------------------------|
G|-----------------------------------3-----4-----3-----2-----3-----4-----|
D|-----------------------------------------------------------------------|
A|-----------------------------------------------------------------------|
E|-----------------------------------------------------------------------|

        Ebm                           Bb


E|-----------2-----------4-----2-----------------------------------|
B|-----4-----------4-----------------------------------------------|
G|-----------------------------------3-----4-----3-----2-----3-----|
D|-----------------------------------------------------------------|
A|-----------------------------------------------------------------|
E|-----------------------------------------------------------------|

         F#                    Bb

E|----------------------------------------------|
B|----------------------------------------------|
G|----------------------------3v----------4-----|
D|-----4v----------3-----4----------------------|
A|----------------------------------------------|
E|----------------------------------------------|

        Ebm                           Bb

E|-----------2-----------4-----2-----------------------------------|
B|-----4-----------4-----------------------------------------------|
G|-----------------------------------3-----4-----3-----2-----3-----|
D|-----------------------------------------------------------------|
A|-----------------------------------------------------------------|
E|-----------------------------------------------------------------|

        Ebm                           Bb

E|-----------2-----------4-----2-----------------------------------------|
B|-----4-----------4-----------------------------------------------------|
G|-----------------------------------3-----4-----3-----2-----3-----4-----|
D|-----------------------------------------------------------------------|
A|-----------------------------------------------------------------------|
E|-----------------------------------------------------------------------|

        Ebm                           Bb

E|-----------2-----------4-----2-----------------------------------|
B|-----4-----------4-----------------------------------------------|
G|-----------------------------------3-----4-----3-----2-----3-----|
D|-----------------------------------------------------------------|
A|-----------------------------------------------------------------|
E|-----------------------------------------------------------------|

       F#                         Bb

E|------------------------------------------------------------------|
B|-----------2-----2-----2-----2-----4-----2------------------------|
G|-----------------------------------------------3-----1------------|
D|-----4-----------------------------------------------------4v-----|
A|------------------------------------------------------------------|
E|------------------------------------------------------------------|

        F#                     Bb     Ebm

E|-----------------------------------------|
B|-----------------------------2-----4-----|
G|-----------------3v----------------------|
D|-----3-----4-----------------------------|
A|-----------------------------------------|
E|-----------------------------------------|

STRUCTURE
Verse
Chorus
Verse
Chorus
Instrumental 1
Verse
Chorus
Instrumental 2
Verse
Chorus
Instrumental 3
Outro
Добавлено: 11.10.2013
Другие материалы по этой песне:
  • Аккорды и текст

Страница создана 11.10.2013
http://primanota.ru/the-growlers/beach-rats-chords.htm
Привет, Гость.
Предлагаем пройти революционный курс по гитаре.
Подарок от PrimaNota.Ru, забирай!