PrimaNota.ru - самый крупный в мире бесплатный архив песенных текстов, аккордов, табулатур и нот


The Brobecks - Visitation Of The Ghost - бас-таба, видео

Регистрация Запомнить меня
Войти через:  Facebook Google Twitter Vk Yandex Mail.ru

The Brobecks - Visitation Of The Ghost - бас-таба, видео

Печатать
Просмотров: 142
-------------------------------------------------------------------------------
                             Visitation of the Ghost - The Brobecks
-------------------------------------------------------------------------------
Tabbed by: Koda Murphy
E-mail: geerardgay@gmail.com

*Notes* I adore The Brobecks along with frontman Dallon Weekes and since there are no bass tabs for The
Brobecks, I decided to figure out the tabs to Visitation of the Ghost, This may not be entirely accurate
since it was figured out by ear, but it's better than the nothingness that was this section previously.
For errors found please email me.

Tuning: Standard Tuning

Intro: (starts at about 0:08)*quietly*
G|------------------------------------------------------------------------------|
D|------------------------------------------------------------------------------|
A|---------------------1-5-1---0-3-----1-5-1---0-3------------------------------|
E|-3-1--3-------3-1--3-------2-----2--3-------2---------------------------------|
pm . . . . . . . . . . . . . . . . . . . . . . . . . .  . . . . . . . . . . .

Verse One: (0:25)(You think, you think you're pretty smart...)
G|---------------------------------------------------------------------------|
D|---------------------------------------------------------------------------|
A|---------------------------------------------------------------------------|
E|-33333333-22222222-33333333-22222222---------------------------------------|   (x2)

Chorus: (Oh, she lines the pictures...)
G|---------------------------------------------------------------------------|
D|---------------------------------------------------------------------------|
A|-33333333--------55555555--------33333333--------56545654-5*---------------|
E|---------33333333--------33333333--------33333333--------------------------|

Post Chorus:
G|---------------------------------------------------------------------------|
D|---------------------------------------------------------------------------|
A|---1-5-1---0-3-----1-5-1---0-3---------------------------------------------|
E|-3-------2-----2-3-------2-------------------------------------------------|
pm . . . . . . . . . . . . . . . . . . . . . . . . . . . . . . . . . . . . .

Verse Two: (You think that I don't know your game...)
G|---------------------------------------------------------------------------|
D|---------------------------------------------------------------------------|
A|---------------------------------------------------------------------------|
E|-33333333-22222222-33333333-22222222---------------------------------------|   (x2)

Chorus:
G|---------------------------------------------------------------------------|
D|---------------------------------------------------------------------------|
A|-33333333--------55555555--------33333333--------56545654-5*---------------|
E|---------33333333--------33333333--------33333333--------------------------|

Bridge Intro:
G|---------------------------------------------------------------------------|
D|---------------------------------------------------------------------------|
A|---------------------------------------------------------------------------|
E|-3*---2*----1---3|---------------------------------------------------------|

Bridge: (Oh my Lord, Lord, Lord, Lord...)
G|---------------------------------------------------------------------------|
D|---------------------------------------------------------------------------|
A|-------------0-1---------------0-1----------1-5-1---0-3-0----1-5-1---0-3---|
E|-1-3*-----3------2*----3*----3------2*----3-------2-------3-------2-----2--|
pm . . . . . . . . . . . . . . . . . . . . . . . . .(Slowly lift up palm). .

G|---------------------------------------------------------------------------|
D|---------------------------------------------------------------------------|
A|---1-5-1---0-3-0----1-5-1---0-3-------11-55-11----00-33--------------------|
E|-3-------2-------3-------2-----2--33----------22-------22------------------|


G|---------------------------------------------------------------------------|
D|---------------------------------------------------------------------------|
A|----11-55-11----00-3*------------------------------------------------------|
E|-33----------22------------------------------------------------------------|

Chorus:
G|---------------------------------------------------------------------------|
D|------------------------------------------------------------------4--------|
A|-33333333----------55555555----------33333333----------56545654-5----------|
E|----------33333333----------33333333----------33333333---------------------|

G|---------------------------------------------------------------------------|
D|-55555555-44444444-55555555-44444444---------------------------------------|
A|-----------------------------------------11-55-11----00-33-----------------|
E|--------------------------------------33----------22-------22--------------|

G|---------------------------------------------------------------------------|
D|---------------------------------------------------------------------------|
A|----11-55-11----11-333333--------------------------------------------------|
E|-33----------22------------------------------------------------------------|

Chorus: (She lines the pictures...)
G|---------------------------------------------------------------------------|
D|---------------------------------------------------------------------------|
A|-33333333----------55555555----------33333333----------56545654-5*---------|
E|----------33333333----------33333333----------33333333---------------------|

Ending:
G|---------------------------------------------------------------------------|
D|---------------------------------------------------------------------------|
A|---1-5-1---0-3-----1-5-1---0-3-----1-5-1---0-3-----1-5-1---0-3-------------|
E|-3-------2-----2-3-------2-----123-------2-----2-3-------2-----123|--------|
pm . . . . . . . . . . . . . . . . . . . . . . . . . . . . . . . . . . . . .


| |  one syllable
| *  let ring
| /  slide up
| \  slide down
| h  hammer-on
| p  pull-off
| ~  vibrato
| +  harmonic
| x  Mute note
=================================THANK YOU FOR PLAYING==============================================
Добавлено: 08.11.2015
Другие материалы по этой песне:
  • Аккорды и текст

Страница создана 08.11.2015
http://primanota.ru/the-brobecks/visitation-of-ghost-chords.htm
Привет, Гость.
Предлагаем пройти революционный курс по гитаре.
Подарок от PrimaNota.Ru, забирай!