PrimaNota.ru - самый крупный в мире бесплатный архив песенных текстов, аккордов, табулатур и нот


The Brobecks - Better Than Me - аккорды и текст, видео

Регистрация Запомнить меня
Войти через:  Facebook Google Twitter Vk Yandex Mail.ru

The Brobecks - Better Than Me - аккорды и текст, видео

Печатать
Просмотров: 251
Better Than Me
The Brobecks
This is my first tab ever, but an easy one. Hope you enjoy :)
This is from their newly released album "Violent Things", which is a slightly different 
than the one on "Happiest Nuclear Winter". This version is better tho.

Tuning: Standard, EADGBe

Intro:                    (piano)
e|-3-3----2-2----3-3----3-3----3-3----2-2-2----0-0----3-3----3-3----|
B|-3-3----4-4----5-5----4-4----3-3----4-4-4----0-0----5-5----3-3----|
G|-4-4----4-4----5-5----5-5----4-4----4-4-4----0-0----5-5----4-4----|
D|-5-5----4-4----5-5----5-5----5-5----4-4-4----2-2----5-5----5-5----|
A|-5-5----2-2----3-3----3-3----5-5----2-2-2----2-2----3-3----5-5----|
E|-3-3-------------------------3-3-------------0-0-----------3-3----|

e|-2-2----3-3----3-3-3-3----5-|
B|-4-4----5-5----4-4-4-4----7-|
G|-4-4----5-5----5-5-5-5----7-|
D|-4-4----5-5----5-5-5-5----7-| (let ring)
A|-2-2----3-3----3-3-3-3----5-|
E|----------------------------|

(bass part)

Verse:

   [G]    [B]    [C]   [Cm]    [G]    [B]   [Em]    [C]    [G]
e|-3-3----2-2----3-3----3-3----3-3----2-2----0-0----3-3----3-3----|
B|-3-3----4-4----5-5----4-4----3-3----4-4----0-0----5-5----3-3----|
G|-4-4----4-4----5-5----5-5----4-4----4-4----0-0----5-5----4-4----|
D|-5-5----4-4----5-5----5-5----5-5----4-4----2-2----5-5----5-5----|
A|-5-5----2-2----3-3----3-3----5-5----2-2----2-2----3-3----5-5----|
E|-3-3-------------------------3-3-----------0-0-----------3-3----|

   [B]    [C]    [Cm]    [D]
e|-2-2----3-3----3-3-----5-5-5-5-5-5-5-5-5-5-5-5-5-|
B|-4-4----5-5----4-4-----7-7-7-7-7-7-7-7-7-7-7-7-7-|
G|-4-4----5-5----5-5-----7-7-7-7-7-7-7-7-7-7-7-7-7-|
D|-4-4----5-5----5-5-----7-7-7-7-7-7-7-7-7-7-7-7-7-|
A|-2-2----3-3----3-3-----5-5-5-5-5-5-5-5-5-5-5-5-5-|
E|-------------------------------------------------|

(bass fill, solo, piano fill)


Thats basically the chords and the verse and intro and stuff.
Here's the actual song with it.

Verse 1
G G              Bb      C C  C m  G G               B B        Em Em      C C
Every girl from here to Soho    Loves to tell me things i don't know

     G G            B B         C C         Cm Cm     D
It's beautiful and smart, and no good for me, and ohhhwhoaaohhh

Verse 2, with Piano

G G                  B B    C C          Cm Cm  G G            B B       Em Em
All your boyfriends go to film school       Nathan was in plays in highschool

C C  G G           B B       C C  Cm Cm
    Me i'm gonna play the imbecile who,

D
Who keeps choosing you, even though you're bipolar and you're selfish!


I Hate you! WAHHHHHH!

Chorus:

G      B    C           Cm    G          B      Em            C          G
Everyone is better than me, i think everyone is better than, better than me

      B     C            Cm          D
Everyone is better than, better than me, heyay


(Piano Part)

Bridge:

E            Eb          D           C#
Ahhhhhhhhhhhhahhhhhhhhhhhhahhhhhhhhhhahhhhhhhhhhhh

C                  G                   C             G
    Baaaba badaaaa daaaaaaaaaaa (solo) Baaba badaaaa daaaaaaaaaaaaa (solo)

C                  G                   C             G
    Baaaba badaaaa daaaaaaaaaaa (solo) Baaba badaaaa daaaaaaaaaaaaa (solo)

D
Aaaaaaaaaaaahhhhhhhhhhh

G G  B B  C C Cm Cm G G B B C C Cm Cm

Verse 3 (No guitar)

Look what you've done, now i'm a mess. Today i even thought i'd wear a dress

it's beautiful so smart, and no good for me, and

D                  D
Whoooaaaaohohhhh         Yeah!

(Repeat Chorus)

G      B    C           Cm    G                 B         C      Cm
Everyone is better than me, i think, throw your hands out if you agreee with

G       B      C            Cm   G          B      C
me everyone is better than me, i think everyone is better than,

            G B C Cm
Better than me

            G B C Cm
Better than me

Oh!

G B C Cm (x4)


*And that's it. Its probably not all completely right, but it worked pretty well for me. 
FIRST TAB EVER FOR THIS SONG! :D Also my first tab ever. Please rate it and email me 
questions.

flyingwhale27@gmail.com
Добавлено: 30.04.2012
Другие материалы по этой песне:
  • Аккорды и текст

Страница создана 30.04.2012
http://primanota.ru/the-brobecks/better-than-me-chords.htm
Привет, Гость.
Предлагаем пройти революционный курс по гитаре.
Подарок от PrimaNota.Ru, забирай!