PrimaNota.ru - самый крупный в мире бесплатный архив песенных текстов, аккордов, табулатур и нот


The Bravery - Believe - аккорды и текст, таба, бас-таба, драм-таба, видео

Регистрация Запомнить меня
Войти через:  Facebook Google Twitter Vk Yandex Mail.ru

The Bravery - Believe - аккорды и текст, таба, бас-таба, драм-таба, видео

Печатать
Просмотров: 734
Уроки эстрадного вокала в Санкт-Петербурге
Believe
The Bravery
Hey guys! This is my first attempt at tabs. I don't own a capo...so please bear with me......



LEAD 1:( Keeps repeating in the background )

e|--------------------------------------------------------------------------|
B|--------------------------------------------------------------------------|
G|--------------------------------------------------------------------------|x2
D|--------------------------------------------------------------------------|
A|--6-4------------------4---4----------------------------------------------|
A|------6-4-6------6-4-6---6-----1-1----------------------------------------|



VERSE 1:

Bbm       C#  Bbm       C#         Bbm        C#   Ab
The faces all around me they don't smile they just crack
Waiting for our ship to come but our ships not coming back

Bbm  C#     Ab   Bbm          C#   Ab
We   do our time like pennies in a jar

                   Bbm
What are we saving for [x2]



VERSE 2:

There's a smell of stale fear that's reeking from our skins.
The drinking never stops because the drinks absolve our sins
We sit and grow our roots into the floor
But what are we waiting for? [x2]



CHORUS:

Bbm        C#           Ab
So give me something to believe
Cause I am living just to breathe

(Bbm) C#     Ab        Eb
And   I need something more
To keep on breathing for

Bbm        C#           Ab
So give me something to believe



LEAD 1:Repeat



VERSE 3:

Something's always coming you can hear it in the ground
It swells into the air
With the rising
Rising sound
And never comes but shakes the boards and rattles all the doors
What are we waiting for [x2]


CHORUS:Repeat


LEAD 2:

e|-/6---6--6---6--6-9-6--6---6--6-9-6----------------------|
B|-------9------9-------9-----9------9-6-6-----------------|
G|-----------------------------------------8-6-6-8-6-------|
D|---------------------------------------------------8-----|
A|---------------------------------------------------------|
E|---------------------------------------------------------|



VERSE 4:

I am hiding from some beast
But the beast was always here
Watching without eyes
Because the beast is just my fear
That I am just nothing
Now its just what I've become
What am I waiting for
Its already done

Oh


CHORUS:Repeat
Добавлено: 06.05.2012
Другие материалы по этой песне:

Страница создана 19.03.2012
http://primanota.ru/the-bravery/believe-chords.htm
Привет, Гость.
Предлагаем пройти революционный курс по гитаре.
Подарок от PrimaNota.Ru, забирай!