PrimaNota.ru - самый крупный в мире бесплатный архив песенных текстов, аккордов, табулатур и нот


The Bones - Until I Die - таба, видео

Регистрация Запомнить меня
Войти через:  Facebook Google Twitter Vk Yandex Mail.ru

The Bones - Until I Die - таба, видео

Печатать
Просмотров: 128

INTRO
E---------------------------------------------------------|
B---------------------------------------------------------|
G---------------------------------------------------------| X2
D----------7------------------7---------7----------77-----|
A--9999999-5-7--999999999-2-4-5-9999999-5-7--22-44-55-77--|
E--7777777---5--777777777-0-2---7777777---5--00-22----55--|


I GOTTA BAD REPUTATION...
E------------------------------------------------------|
B------------------------------------------------------|
G------------------------------------------------------|
D-----------------------------------------------77-----|
A--99999--------99999--------99999--------22-44-55-77--|
E--77777--------77777--------77777--------00-22----55--|

E---------------------------------------------------------|
B---------------------------------------------------------|
G---------------------------------------------------------|
D----------7------------------7---------7----------77-----|
A--9999999-5-7--999999999-2-4-5-9999999-5-7--22-44-55-77--|
E--7777777---5--777777777-0-2---7777777---5--00-22----55--|


IT DOESNT MATTER IF I GO DOWN...
E---------------------------------------------------------|
B---------------------------------------------------------|
G---------------------------------------------------------|
D---------777777---------------------777777---------------|
A--555555-555555-777777-99-77-555555-555555-777777777777--|
E--333333--------555555-77-55-333333--------555555555555--|

E----------------------------------------------|
B----------------------------------------------|
G----------------------------------------------|
D---------777777---------------------777777----|
A--555555-555555-777777-99-77-555555-555555-7--|
E--333333--------555555-77-55-333333--------5--|


[THIS PLAYS QUIET IN THE BACKGROUND]
E------------------------------------------------------|
B------------------------------------------------------|
G------------------------------------------------------|
D----------7------------7------------7-----------------|
A--9999999-5-7--9999999-5-7--9999999-5-7---------------|
E--7777777---5--7777777---5--7777777---5---------------|
                                                       |
[THIS PLAYS LOUDER OVER THE TOP]                       |                                |
E------------------------------------------------------|
B------------------------------------------------------|
G------------------------------------------------------|
D-----------------------------------------------77-----|
A--99999--------99999--------99999--------22-44-55-77--|
E--77777--------77777--------77777--------00-22----55--|


IT DOESNT MATTER IF I GO DOWN...
E---------------------------------------------------------|
B---------------------------------------------------------|
G---------------------------------------------------------|
D---------777777---------------------777777---------------|
A--555555-555555-777777-99-77-555555-555555-777777777777--|
E--333333--------555555-77-55-333333--------555555555555--|

E---------------------------------------------------------|
B---------------------------------------------------------|
G---------------------------------------------------------|
D---------777777---------------------777777---------------|
A--555555-555555-777777-99-77-555555-555555-777777777777--|
E--333333--------555555-77-55-333333--------555555555555--|

SOLO BACKING
E---------------------------|
B---------------------------|
G---------------------------|
D---------------------------|
A--22222-44444-55555-77777--|
E--00000-22222-33333-55555--|

E------------------------------------------|
B------------------------------------------|
G------------------------------------------|
D------------------------------------------|
A--99999-1111111111-1212121212-1414141414--|
E--77777-9-9-9-9-9--1010101010-1212121212--|

E---------------------------------------|
B---------------------------------------|
G---------------------------------------|
D---------------------------------------|
A--22222-44444-55555-77777-99999999999--|
E--00000-22222-33333-55555-77777777777--|


E--------------------------------------------------------|
B--------------------------------------------------------|
G--------------------------------------------------------|
D----------7------------7------------7------------7------|
A--9999999-5-7--9999999-5-7--9999999-5-7--9999999-5-77---|
E--7777777---5--7777777---5--7777777---5--7777777---55---|


IT DOESNT MATTER IF I GO DOWN...
E---------------------------------------------------------|
B---------------------------------------------------------|
G---------------------------------------------------------|
D---------777777---------------------777777---------------|
A--555555-555555-777777-99-77-555555-555555-777777777777--|
E--333333--------555555-77-55-333333--------555555555555--|

E---------------------------------------------------------|
B---------------------------------------------------------|
G---------------------------------------------------------|
D---------777777---------------------777777---------------|
A--555555-555555-777777-99-77-555555-555555-777777777777--|
E--333333--------555555-77-55-333333--------555555555555--|

E----------------------------------------------|
B----------------------------------------------|
G----------------------------------------------|
D---------777777---------------------777777----|
A--555555-555555-777777-99-77-555555-555555-7--|
E--333333--------555555-77-55-333333--------5--|

E-----------|
B-----------|
G-----------|
D-----------|
A--99-77-9--|
E--77-55-7--|


SORRY NO SOLO IM AFFRAID.
Добавлено: 26.09.2013
Другие материалы по этой песне:
  • Аккорды и текст

Страница создана 26.09.2013
http://primanota.ru/the-bones/until-i-die-chords.htm
Привет, Гость.
Предлагаем пройти революционный курс по гитаре.
Подарок от PrimaNota.Ru, забирай!