PrimaNota.ru - самый крупный в мире бесплатный архив песенных текстов, аккордов, табулатур и нот


The Bones - Hdmi - таба, видео

Регистрация Запомнить меня
Войти через:  Facebook Google Twitter Vk Yandex Mail.ru

The Bones - Hdmi - таба, видео

Печатать
Просмотров: 650
-------------------------------------------------------------------------------
                             HDMI - Bones
                            Album - ROTTEN
-------------------------------------------------------------------------------

Tuning: Standard (Unless you want to play the bass too...)



Red/Red/Red/Red...

e|/|-------------------------------|--------------------------------|
B|/|---5-8-----5-8-----5-8-----5-8-|---5h8p----5-8-----5h8p----5-8--|
G|/|-4-----4-4-----4-4-----4-4----4|-4-----4-4-----4-4-----4-4-----4|
D|/|-------------------------------|--------------------------------|
A|/|-------------------------------|--------------------------------|
E|/|-------------------------------|--------------------------------|

[Then the bass kicks in./././. Remember to drop to C and turn bass up as loud as you can]

e|/|-------------------------------|--------------------------------|
B|/|---5-8-----5-8-----5-8-----5-8-|---5h8p----5-8-----5h8p------8--|
G|/|-4-----4-4-----4-4-----4-4----4|-4-----4-4-----4-4-----4-4-----4|
D|/|-------------------------------|--------------------------------|
A|/|-------------------------------|--------------------------------|
C|/|-------------------------------|-------------------------0------|

e|/|-------------------------------|-------------------------------|
B|/|-----8-------8-------8-------8-|-----8-------8-------8-------8-|
G|/|-4-----4-4-------4-----4-4-----|-4-----4-4-------4-----4-4-----|
D|/|-------------------------------|-------------------------------|
A|/|-------------------------------|-------------------------------|
C|/|-------------------------------|-------------------------------|
                                                                     
e|\|-----------------------------------|--------------------------------|
B|\|-----------------------------------|--------------------------------|
G|\|-----------------------------------|--------------------------------|
D|\|-----------------------------------|--------------------------------|
A|\|-----------------------------------|--------------------------------|
C|\|-0-------------0-----------12--3---|-----3-------3-------7----0-----|

e|\|-------------------------------|--------------------------------|
B|\|-------------------------------|--------------------------------|
G|\|-------------------------------|--------------------------------|
D|\|-------------------------------|--------------------------------|
A|\|-------------------------------|--------------------------------|
C|\|-0-------------0-----------12--3--------3-----3------7----0-----|
-0------12-15---0---3--3--7--0--|

e|-------------------------------|--------------------------------|
B|-------------------------------|--------------------------------|
G|------------Chorus-------------|--------------------------------|
D|-------------------------------|--------------------------------|
A|-------------------------------|--------------------------------|
C|----7----------3-----------0---|--------------------------------|


Haven't worked out the bass fully yet as it is bass and hard to hear...

Will figure out better later on.

Lyrics:




"Sesh."

Smoking like a motherfucker higher than a motherfucker
Bitch please stop the playin
Sesh Hollow Water Boys, death to them other boys we can't hear a word you saying


************************************

| /   slide up
| \   slide down
| h   hammer-on
| p   pull-off
| ~   vibrato
| +   harmonic
| x   Mute note
| b   Bend
| pb  Pre-bend
| br  Bend release
| pbr Pre-bend release
| brb Bend release bend

************************************

Not complete but too tired atm
Добавлено: 16.07.2015
Другие материалы по этой песне:
  • Аккорды и текст

Страница создана 16.07.2015
http://primanota.ru/the-bones/hdmi-chords.htm
Привет, Гость.
Предлагаем пройти революционный курс по гитаре.
Подарок от PrimaNota.Ru, забирай!