PrimaNota.ru - самый крупный в мире бесплатный архив песенных текстов, аккордов, табулатур и нот


The Bones - Takeitfromme - таба, видео

Регистрация Запомнить меня
Войти через:  Facebook Google Twitter Vk Yandex Mail.ru

The Bones - Takeitfromme - таба, видео

Печатать
Просмотров: 270
-------------------------------------------------------------------------------
                            TakeItFromMe - Bones
-------------------------------------------------------------------------------


e|----------------------------------------------|
B|--------2---------3---------2--(0)------------|
G|------2---------2---------2-------------------|
D|----2---------2---------2---------------------|    %
A|--0---------2---------0-----------------------|
E|----------------------------------------------|

Take it from me today will be your last
This town will be your biggest downfall yet
Say your goodbyes these words will be your last
This life has been your biggest downfall yet


************************************

| /   slide up
| \   slide down
| h   hammer-on
| p   pull-off
| ~   vibrato
| +   harmonic
| x   Mute note
| b   Bend
| pb  Pre-bend
| br  Bend release
| pbr Pre-bend release
| brb Bend release bend

************************************
Добавлено: 06.11.2015
Другие материалы по этой песне:
  • Аккорды и текст

Страница создана 06.11.2015
http://primanota.ru/the-bones/takeitfromme-chords.htm
Привет, Гость.
Предлагаем пройти революционный курс по гитаре.
Подарок от PrimaNota.Ru, забирай!