PrimaNota.ru - самый крупный в мире бесплатный архив песенных текстов, аккордов, табулатур и нот


The Be Good Tanyas - Coo Coo Bird - аккорды и текст, видео

Регистрация Запомнить меня
Войти через:  Facebook Google Twitter Vk Yandex Mail.ru

The Be Good Tanyas - Coo Coo Bird - аккорды и текст, видео

Печатать
Просмотров: 108
Coo Coo Bird
The Be Good Tanyas
"The Coo Coo Bird" by The Be Good Tanyas
----------------------------------------
Tabbed by Stewart Houten

This song is basically Am and G, but with a prominent bass
melody.  I think the bass follows

/ A / E G / A / C-B-C-B /  

but if you aren't fortunate enough to be playing along with
a double bassist then I think the fingerpick below bears a
passing resemblance to the recorded version.

  Am
|---------------------------------|
|-----1-----1---------1-----------|
|---------------2-----------------|
|-----2-------2-------2-----------|   etc...
|-0---------------0---------------|
|---------0---------------0---3---|
  1 . | . 2 . | . 3 . | . 4 . | . 
  
  G
|---------------------------------|
|-----0-----0---------0-----0-----|
|---------------0---------------0-|
|-----0-------0-------0-------0---|
|---------------------------------|
|-3-------3-------3-------3-------|
  1 . | . 2 . | . 3 . | . 4 . | . 

     
Добавлено: 10.07.2013
Другие материалы по этой песне:
  • Аккорды и текст

Страница создана 10.07.2013
http://primanota.ru/the-be-good-tanyas/coo-coo-bird-chords.htm
Привет, Гость.
Предлагаем пройти революционный курс по гитаре.
Подарок от PrimaNota.Ru, забирай!