PrimaNota.ru - самый крупный в мире бесплатный архив песенных текстов, аккордов, табулатур и нот


Testament - Sins Of Omission - текст песни, таба, бас-таба, видео

Регистрация Запомнить меня
Войти через:  Facebook Google Twitter Vk Yandex Mail.ru

Testament - Sins Of Omission - текст песни, таба, бас-таба, видео

Печатать
Просмотров: 166
Уроки эстрадного вокала в Санкт-Петербурге
Авторы музыки: Testament
Авторы текста: Alex Skolnick, Eric Peterson, Chuck Billy
TESTAMENT
SONG:SINS OF OMISSION
ALBUM:PRACTICE WHAT YOU PREACH


TAB EXPLANATION:

T				Two hand tapping
Tb+1				Hold bended note and then tab the last note marked with T
b+1				Bend note one whole step
b+½				Bend note half step
b+1 r				Bend note and then release
pb+1				Bend note whole step and strike the note
ub+1				Bend lower note to achieve Unison
cb+1  +½                Combound bend: bend the note first one step, then hold and bend half step (1½ steps)
B.F.				Bar flutter
w/bar				Use tremolobar
\-½/				Dip with tremolobar
~~~~				Hand vibrato
thrill			Hammer-on and pull-off as fast as possible
P.S.				Pick scrape
P.M.				Palm muting
A.H.				Artificial Harmonic
< < < <			Volume swells with know or pedal



(A) Intro:

Guitar 1 (Clean)
(Alex)

|--------------------------------------------------|----------------------------------------------------------|
|--------------------------------------------------|----------------------------------------------------------|
|--------------------------------------------------|----------------------------------------------------------|
|--2--4--4--4--4--4--4--4--5--4--4--4--4--4--4--4--|-5--4--4--5--4--4--5--4--5--4--4--4--4--4--4--4-----------|
|--------------------------------------------------|----------------------------------------------------------|
|--------------------------------------------------|----------------------------------------------------------|
|
|Guitar 2 w/dist. enters 2nd time
|(Eric)
|   vol swell  <  <  <  <  <  <  <  <  < < <<<<<<
|--------------------------------------------------|----------------------------------------------------------|
|--------------------------------------------------|----------------------------------------------------------|
|--------------------------------------------------|----------------------------------------------------------|
|--------------------------------------------------|----------------------------------------------------------|
|--16----------------------------------------------|---------------------------------------------(16)\--------|
|--14----------------------------------------------|---------------------------------------------(14)\--------|


|--------------------------------------------------|----------------------------------------------------------|
|--------------------------------------------------|----------------------------------------------------------|
|---6-------4--------------------------------------|--6-------4-----------------------------------------------|
|-----4--4-----4--4--2--4--5--4--4--4--4--4--4--4--|----4--4-----4--4--2--4--5--4--4--4--4--4--4--4-----------|
|--------------------------------------------------|----------------------------------------------------------|
|--------------------------------------------------|----------------------------------------------------------|
|
|                                                     <  <  <  <  <  <  <  <  < < < < < < < < < < < < < < 
|--------------------------------------------------|---------------------------------------------------------|
|--------------------------------------------------|---------------------------------------------------------|
|--------------------------------------------------|---------------------------------------------------------|
|--------------------------------------------------|---------------------------------------------------------|
|--------------------------------------------------|--4------------------------------------------------------|
|--------------------------------------------------|--2------------------------------------------------------|


(Alex)
|---------------------------------------------------|
|---------------------------------------------------|
|---6-------4---------------------------------------|
|-----4--4-----4--4--2--4--5--4--4--4--4--4--4--4---|
|---------------------------------------------------|
|---------------------------------------------------|
|                                                   |
|(Eric)                                             |
|                                                   |
|---------------------------------------------------|
|---------------------------------------------------|
|---------------------------------------------------|
|---------------------------------------------------|
|---------------------------------------------------|
|---------------------------------------------------|


(F# Phrygian Dominant)
Guitars 1 and 2

|----------------------------------------------------|-----------------------------------------------------|
|----------------------------------------------------|-----------------------------------------------------|
|----------------------------------------------------|-----------------------------------------------------|
|---2--4--0--4-----4-----4-----4-----4-----4-----4---|--4--------------------------4-----------------------|
|---------------4-----2-----1------------------------|--4--------------------------4-----------------------|
|---------------------------------3-----2-----0------|--2--------------------------2-----------15-\--------|


Figure 1
        P.M.-------------|      P.M.--------------|                             P.M.------------|
|----------------------------------------------------|-----------------------------------------------------|
|----------------------------------------------------|-----------------------------------------------------|
|----------------------------------------------------|-----------------------------------------------------|
|----------------------------------------------------|-----------------------------------------------------|
|---4----4--4--4--4--4--4--5\4---4--4--4--4--4--4----|--5\4--4--5\4--4--5--5\4--4--4--4--4--4--4-----------|
|---0h2--2--2--2--2--2--2--3\2---2--2--2--2--2--2----|--3\2--2--3\2--2--3--3\2--2--2--2--2--2--2-----------|


        P.M.-------------|                                                           P.M.-------------|
|----------------------------------------------------|-----------------------------------------------------|
|----------------------------------------------------|-----------------------------------------------------|
|----------------------------------------------------|---5-------4-------2---------------------------------|
|----------------------------------------------------|---5-------4-------2---------------------------------|
|---4----4--4--4--4--4--4--5\4----4--4--4--4--4--4---|---3-------2-------0-----5\4----4--4--4--4--4--4-----|
|---0h2--2--2--2--2--2--2--3\2----2--2--2--2--2--2---|-------------------------3\2----2--2--2--2--2--2-----|


Guitar 1               Fig.B
                                                                                      ~~~~~
|---------------------|---------------------------------------------|----------------------------------------------|
|---------------------|---------------------------------------------|----------------------------------------------|
|---------------------|---------------------------------------------|----------------------------------------------|
|---5---------5-------|---------------------------------------------|----------------------------------5------4----|
|---5---------5-------|-------2-------4--------5--------4--------2--|--------2--------4--------5-------------------|
|---3---------3-------|--2--2---2--2-----2--2-----2--2-----2--2-----|--3--3-----3--3-----3--3-----3-3----3--3------|
|
|Guitar 2
|---------------------|---------------------------------------------|----------------------------------------------|
|---------------------|---------------------------------------------|----------------------------------------------|
|---------------------|---------------------------------------------|----------------------------------------------|
|-----------------12\-|---------------------------------------------|----------------------------------------------|
|---5---------5---12\-|--4------------------------------------------|--5-------------------------------------------|
|---3---------3-------|--2------------------------------------------|--3-------------------------------------------|



                                                                         
  P.M. on 6th string ------------------------------------------|  ~~~~~~   P.M.--------------------|
|-----------------------------------------------|-------------------------------------------------------------------|
|-----------------------------------------------|----------------------------------------------------6h7h9----------|
|-----------------------------------------------|-----------------------------------------5--7--9-------------------|
|-----------------------------------------------|---------------------------------4h5h7h----------------------------|
|--------2--------4--------5--------4--------2--|--------2--------4--------4h5h7------------------------------------|
|--2--2-----2--2-----2--2-----2--2-----2--2-----|--3--3-----3--3----------------------------------------------------|
|
|                          P.S.
|-----------------------------------------------|-------------------------------------------------------------------|
|-----------------------------------------------|-------------------------------------------------------------------|
|-----------------------------------------------|-------------------------------------------------------------------|
|---4-----------------------X-------------------|-------------------------------------------------------------------|
|---4-----------------------X-------------------|--5----------------------------------------------------------------|
|---2-------------------------------------------|--3-----------------------------------------15-\-------------------|



                                                                                                        ~~~~
|------------------------------------------------|------------------------------------------------------------------|
|------------------------------------------------|------------------------------------------------------------------|
|--------4---------6--------7---------6-------4--|----------4---------6--------7------------------------------------|
|------------------------------------------------|-------------------------------------------5---------4------------|
|--------2---------4--------5---------4-------2--|----------2---------4--------5------------------------------------|
|------------------------------------------------|------------------------------------------------------------------|
|
|   P.M.---------------------------|                  P.M.----------------------------|
|------------------------------------------------|------------------------------------------------------------------|
|------------------------------------------------|------------------------------------------------------------------|
|------------------------------------------------|------------------------------------------------------------------|
|------------------------------------------------|--------------------------------------------5--------4------------|
|---4--4--4--4--4--4--4--4--4--4--4----4------4--|-----5--5--5--5--5--5--5--5--5--5--5------------------------------|
|---2--2--2--2--2--2--2--2--2--2--2--------------|-----3--3--3--3--3--3--3--3--3--3--3------------------------------|




|------------------------------------------------|------------------------------------------------------------------|
|------------------------------------------------|------------------------------------------------------------------|
|--------4---------6--------7---------6-----4----|-------4---------6------------------------------------------------|
|------------------------------------------------|------------------------------------------------------------------|
|--------2---------4--------5---------4-----2----|-------2---------4------------------------------------------------|
|------------------------------------------------|------------------------------------------------------------------|
|
|  P.M.----------------------------|               P.M.------------------------------------------------|
|------------------------------------------------|------------------------------------------------------------------|
|------------------------------------------------|------------------------------------------------------------------|
|------------------------------------------------|------------------------------------------------------------------|
|------------------------------------------------|------------------------------------------------------------------|
|---4--4--4--4--4--4--4--4--4--4--4----4-----4---|--5--5--5--5--5--5--5--5-----7p5p4----7p5p4-----------------------|
|---2--2--2--2--2--2--2--2--2--2--2--------------|--3--3--3--3--3--3--3--3-----------------------7---5--------------|



(C) Verse:

(Days    vanished     in   the    night...)
         P.M.------------|      P.M.------------|                                  P.M.-----------------|
|------------------------------------------------|------------------------------------------------------------------|
|------------------------------------------------|------------------------------------------------------------------|
|------------------------------------------------|------------------------------------------------------------------|
|------------------------------------------------|------------------------------------------------------------------|
|---4----4--4--4--4--4--4--5\4--4--4--4--4--4--4-|----5\4--4--5\4--4--5---5\4------4---4---4---4---4---4------------|
|---0h2--2--2--2--2--2--2--3\2--2--2--2--2--2--2-|----3\2--2--3\2--2--3---3\2------2---2---2---2---2---2------------|


(pray               pray  themselves         a -  lone)
         P.M.------------|                                                        P.M.------------------|
|------------------------------------------------|------------------------------------------------------------------|
|------------------------------------------------|------------------------------------------------------------------|
|------------------------------------------------|-----5----4---------2---------------------------------------------|
|------------------------------------------------|-----5----4---------2---------------------------------------------|
|---4----4--4--4--4--4--4--5\4--4--4--4--4--4--4-|-----3----2---------0----5\4-----4---4---4---4---4---4------------|
|---0h2--2--2--2--2--2--2--3\2--2--2--2--2--2--2-|-------------------------3\2-----2---2---2---2---2---2------------|


 (hate                   built  from  their       pride)
         P.M.------------|     P.M.-------------|                                  P.M.------------------|
|------------------------------------------------|------------------------------------------------------------------|
|------------------------------------------------|------------------------------------------------------------------|
|------------------------------------------------|------------------------------------------------------------------|
|------------------------------------------------|------------------------------------------------------------------|
|---4----4--4--4--4--4--4--5\4--4--4--4--4--4--4-|----5\4---4--5\4---4--5--5\4------4---4---4---4---4---4-----------|
|---0h2--2--2--2--2--2--2--3\2--2--2--2--2--2--2-|----3\2---2--3\2---2--3--3\2------2---2---2---2---2---2-----------|


(way.             can't   take     what   they     own)
         P.M.------------|                                                      P.M.-----------------|
|------------------------------------------------|------------------------------------------------------------------|
|------------------------------------------------|------------------------------------------------------------------|
|------------------------------------------------|---5----4---------2-----------------------------------------------|
|------------------------------------------------|---5----4---------2-----------------------------------------------|
|---4----4--4--4--4--4--4--5\4--4--4--4--4--4--4-|---3----2---------0---5\4-----4---4---4---4---4---4---------------|
|---0h2--2--2--2--2--2--2--3\2--2--2--2--2--2--2-|----------------------3\2-----2---2---2---2---2---2---------------|

____________________________________________________________________________________________________________________
|1.
                                                                                                        ~~~~
|------------------------------------------------|------------------------------------------------------------------|
|------------------------------------------------|------------------------------------------------------------------|
|--------4---------6--------7---------6-------4--|----------4---------6--------7------------------------------------|
|------------------------------------------------|-------------------------------------------5---------4------------|
|--------2---------4--------5---------4-------2--|----------2---------4--------5------------------------------------|
|------------------------------------------------|------------------------------------------------------------------|
|
|   P.M.---------------------------|                  P.M.----------------------------|
|------------------------------------------------|------------------------------------------------------------------|
|------------------------------------------------|------------------------------------------------------------------|
|------------------------------------------------|------------------------------------------------------------------|
|------------------------------------------------|--------------------------------------------5--------4------------|
|---4--4--4--4--4--4--4--4--4--4--4----4------4--|-----5--5--5--5--5--5--5--5--5--5--5------------------------------|
|---2--2--2--2--2--2--2--2--2--2--2--------------|-----3--3--3--3--3--3--3--3--3--3--3------------------------------|

___________________________________________________________________________________________________________________
                                                                                                                   |
|------------------------------------------------|------------------------------------------------------------------|
|------------------------------------------------|------------------------------------------------------------------|
|--------4---------6--------7---------6-----4----|-------4---------6------------------------------------------------|
|------------------------------------------------|------------------------------------------------------------------|
|--------2---------4--------5---------4-----2----|-------2---------4------------------------------------------------|
|------------------------------------------------|------------------------------------------------------------------|
|
|  P.M.----------------------------|               P.M.------------------------------------------------|
|------------------------------------------------|------------------------------------------------------------------|
|------------------------------------------------|------------------------------------------------------------------|
|------------------------------------------------|------------------------------------------------------------------|
|------------------------------------------------|------------------------------------------------------------------|
|---4--4--4--4--4--4--4--4--4--4--4----4-----4---|--5--5--5--5--5--5--5--5-----7p5p4----7p5p4-----------------------|
|---2--2--2--2--2--2--2--2--2--2--2--------------|--3--3--3--3--3--3--3--3-----------------------7---5--------------|


___________________________________________________________________________________________________________________
|2.

                            (False  sense of pride...)
|-------------------------|-----------------------------|-----------------------------------------------------------|
|-------------------------|-----------------------------|-----------------------------------------------------------|
|-------------------------|-----------------------------|-----------------------------------------------------------|
|---5------------5--------|--4-------4----4----4----4---|---5----5-------5----7----------5--------------------------|
|---5------------5--------|--4-------4----4----4----4---|---5----5-------5----7----------5--------------------------|
|---3------------3--------|--2-------2----2----2----0---|---3----3-------3----5----------3--------------------------|
|
|           (There's no reason       for   suicide...)
|-------------------------|-----------------------------|-----------------------------------------------------------|
|-------------------------|-----------------------------|-----------------------------------------------------------|
|-------------------------|-----------------------------|-----------------------------------------------------------|
|--4----4----4---4-----4--|--5-------5----5----7----5---|---4----4-------4----4----------4--------------------------|
|--4----4----4---4-----4--|--5-------5----5----7----5---|---4----4-------4----4----------4--------------------------|
|--2----2----2---2-----0--|--3-------3----3----5----3---|---2----2-------2----2----------2--------------------------|
|
|
|        (and hope to find            find the    meaning       of   existance...)
|-------------------------|-----------------------------|-----------------------------------------------------------|
|-------------------------|-----------------------------|-----------------------------------------------------------|
|-------------------------|-----------------------------|-----------------------------------------------------------|
|---5------5----5----7--5-|--4------4-----4-----4---4---|---5----5-------5----7----------5--------------------------|
|---5------5----5----7--5-|--4------4-----4-----4---4---|---5----5-------5----7----------5--------------------------|
|---3------3----3----5--3-|--2------2-----2-----2---2---|---3----3-------3----5----------3--------------------------|


Guitar Solo
(Eric)
(Guitar 2 repeats fig.B)

w/wah                                        b+½   r 
|-----------------------------11--14/17-------------------|-----------------------------------------------------|
|-------------------------13------------------------------|-----------------------------------------------------|
|-----------------11--14------------------14/16-----(16)--|--14h16----16---16----16-----14----------------------|
|---------10--13------------------------------------------|--14h16----16---16----16-----14-----/-18-------------|
|--8--12--------------------------------------------------|-----------------------------------------------------|
|---------------------------------------------------------|-----------------------------------------------------|

     
    thrill~~~~~~~~~~            thrill~~~~~~~~~~~~~           thrill~~~~~~~                b+1   b+1       
|--(14-17)14----------14/17----(17-20)17------------------|--(16-19)16------15h18p15-----------------14----14---|
|---------------------------------------------------------|---------------------------17---17----17-------------|
|---------------------------------------------------------|-----------------------------------------------------|
|---------------------------------------------------------|-----------------------------------------------------|
|---------------------------------------------------------|-----------------------------------------------------|
|---------------------------------------------------------|-----------------------------------------------------|

    b+1     b+1   r       b+1   pb½                ~~~~~~                  holdbend+½  release
|---------------------------------------------------------|-----------------------------------------------------|
|---17------17----(17)--------------17--------------------|-----------------------17----------------------------|
|-------------------------16----16------16---14--16-------|-----------14---16---------(16)-(16)--14-------------|
|---------------------------------------------------------|---14--16---------------------------------16--14--16\|
|---------------------------------------------------------|-----------------------------------------------------|
|---------------------------------------------------------|-----------------------------------------------------|

   b+1                       Tb+1           T                                    ~~~~~~
|---------------------------------------------------------|-----------------------------------------------------|
|---------------------------------------------------------|-----------------------------------------------------|
|--4---(4)----4------4--2----4--------------16------------|------4p2--------------------------------------------|
|-------------4-------------------------------------------|---------------------4-------------------------------|
|---------------------------------------------------------|--------------0---------------------/-17-\-----------|
|---------------------------------------------------------|-----------------------------------------------------|

        B.F.      B.F.
    b+½ ~~~~~~   ~~~~~~~~    b+½ hold bend -----|                                b+1     r             ~~~~~~       
|---------------------------------------------------------|----------------------19------(19)p17----------------|
|----------------------------------------------17---------|------------------------------------------19---------|
|---16----------(16)---------16----------(16)-------------|---14-----16-----------------------------------------|
|---------------------------------------------------------|-----------------------------------------------------|
|---------------------------------------------------------|-----------------------------------------------------|
|---------------------------------------------------------|-----------------------------------------------------|
|
| (Guitar 2)
|---------------------------------------------------------|-----------------------------------------------------|
|---------------------------------------------------------|-----------------------------------------------------|
|---2-----------------------------------------------------|---0--------------------2----------------------------|
|---2-----------------------------------------------------|---0--------------------2------------------5---------|
|---0-----------------------------------------------------|------------------------0------------------5---------|
|---------------------------------------------------------|---3---------------------------------------3---------|



                            (False  sense of pride...)
|-------------------------|-----------------------------|-----------------------------------------------------------|
|-------------------------|-----------------------------|-----------------------------------------------------------|
|-------------------------|-----------------------------|-----------------------------------------------------------|
|---5------------5--------|--4-------4----4----4----4---|---5----5-------5----7----------5--------------------------|
|---5------------5--------|--4-------4----4----4----4---|---5----5-------5----7----------5--------------------------|
|---3------------3--------|--2-------2----2----2----0---|---3----3-------3----5----------3--------------------------|
|
|           (There's no reason       for   suicide...)
|-------------------------|-----------------------------|-----------------------------------------------------------|
|-------------------------|-----------------------------|-----------------------------------------------------------|
|-------------------------|-----------------------------|-----------------------------------------------------------|
|--4----4----4---4-----4--|--5-------5----5----7----5---|---4----4-------4----4----------4--------------------------|
|--4----4----4---4-----4--|--5-------5----5----7----5---|---4----4-------4----4----------4--------------------------|
|--2----2----2---2-----0--|--3-------3----3----5----3---|---2----2-------2----2----------2--------------------------|
|
|
|        (and hope to find            find the    meaning       of   existance...)
|-------------------------|-----------------------------|-----------------------------------------------------------|
|-------------------------|-----------------------------|-----------------------------------------------------------|
|-------------------------|-----------------------------|-----------------------------------------------------------|
|---5------5----5----7--5-|--4------4-----4-----4---4---|---5----5-------5----7----------5--------------------------|
|---5------5----5----7--5-|--4------4-----4-----4---4---|---5----5-------5----7----------5--------------------------|
|---3------3----3----5--3-|--2------2-----2-----2---2---|---3----3-------3----5----------3--------------------------|





Guitars 1 and 2 repeat B fig.

Guitar 3 (Eric)
|--------------------------------|--------------------|---------------------|----------------|----------------------|
|---7----------7---7---7/10---8--|--------------------|-----7----7/10---8---|---8--8/10---8--|--8---8/10----8-------|
|--------------------------------|----4------6----3---|---------------------|----------------|----------------------|
|---4----------4---4---4/7----5--|--------------------|-----4----4/7----5---|---5--5/7----5--|--5---5/7-----5-------|
|--------------------------------|----2------4----1---|---------------------|----------------|----------------------|
|--------------------------------|--------------------|---------------------|----------------|----------------------|


|--------------------------------|--------------------|---------------------|----------------|
|---7----------7---7---7/10---8--|--------------------|-----7----7/10---8---|---8--8/10---8--|
|--------------------------------|----4------6----3---|---------------------|----------------|
|---4----------4---4---4/7----5--|--------------------|-----4----4/7----5---|---5--5/7----5--|
|--------------------------------|----2------4----1---|---------------------|----------------|
|--------------------------------|--------------------|---------------------|----------------|






 Guitars 1 and 2
|--------------------------|-----------------------------|-----------------------------------------------------|
|--------------------------|-----------------------------|-----------------------------------------------------|
|--------------------------|-----------------------------|-----------------------------------------------------|
|---------6----------------|--X-\------------------------|---6------------8------------9-----------------------|
|---------4----------------|--X--\-----------------------|---4------------6------------7-----------------------|
|--------------------------|-----------------------------|-----------------------------------------------------|


Guitar Solo
(Alex)
                    P.M.------|                     ~~~~~~~~                 P.M.--------------------|
|-------------------------------|-----------------------------|------------------------------------------------|
|-------------------------------|-----------------------------|------------------------------------------------|
|-------------------------------|--6-----8----9----(9)--------|---6----8---9---9--8--6--6--9--8--6--5----------|
|----6----8----9----------------|-----------------------------|------------------------------------------------|
|----4----6----7-----6----------|-----------------------------|------------------------------------------------|
|------------------------9---7--|-----------------------------|------------------------------------------------|
|                   P.M.------|                      ~~~~~~~       
|-------------------------------|-----------------------------|------------------------------------------------|
|-------------------------------|-----------------------------|------------------------------------------------|
|-------------------------------|-----------------------------|------------------------------------------------|
|----6----8----9----------------|--6------8-------------------|------------------------------------------------|
|----4----6----7-----6----------|--4------6----7-----(7)------|---4-----6----7-----(7)\------------7-\---------|
|------------------------9---7--|-----------------------------|------------------------------------------------|


                ~~~                                   ~~       \-½/  \-½/    ~~~~           \-½/
|-----------------------|---------------------------------|-----------------------|----------------------------|
|-----------------------|---------------------------------|-----------------------|----------------------------|
|---6--8--9---(9)-------|--6---8/9----6---4------4---6----|---6/-8--/--9----(9)---|--6----8/-9-----8--9---11---|
|-------------------6---|---------------------6-----------|-----------------------|----------------------------|
|-----------------------|---------------------------------|-----------------------|----------------------------|
|-----------------------|---------------------------------|-----------------------|----------------------------|
|
|
|-----------------------|---------------------------------|-----------------------|----------------------------|
|-----------------------|---------------------------------|-----------------------|----------------------------|
|-----------------------|---------------------------------|-----------------------|----------------------------|
|-----------------------|---6---8---9---------------------|--6----8----9----------|--6----8---9----------------|
|---4---6--7---(7)------|---4---6---7---------------------|--4----6----7----------|--4----6---7----------------|
|-----------------------|---------------------------------|-----------------------|----------------------------|


   ~~~~~~~~                  ~~~~~~          ~~~~             ~~~~        ~~~~~~                   ~~~~~~
|-----------------------|---------------------------------|----------------------------------------------------|
|-----------------------|---------------------------------|----------------------------------------------------|
|---11-------9--11---9--|---8---------9------6-----7---9--|---6-----8h9----------------8----9------------------|
|-----------------------|---------------------------------|---------------11----------------------11-----------|
|-----------------------|---------------------------------|----------------------------------------------------|
|-----------------------|---------------------------------|----------------------------------------------------|
|
|                                 P.M.-----------------------------------|
|-----------------------|---------------------------------|----------------------------------------------------|
|-----------------------|---------------------------------|----------------------------------------------------|
|-----------------------|---------------------------------|----------------------------------------------------|
|--11-------------------|---9-------9-----8-------7-------|---6-------6--------6---(6)\----------6--\----------|
|---9-------------------|---7-------7-----6-------5-------|---4-------4--------4---(4)\----------4--\----------|
|-----------------------|---------------------------------|----------------------------------------------------|


Guitar Solo (Alex)

    C#5               D#5     E5                C#5               D#5

                              b+1~~~~~~
|---------------------------------------11|h12-------11--------------------------------------------------------|
|----------9---------------9h12-----------|------14------12h14p12--9h10------9---------------------------------|
|--8h9h11-----11--8h9h11------------------|------------------------------11-----11--8h9-----8------------------|
|-----------------------------------------|----------------------------------------------11---11--7h9----------|
|-----------------------------------------|-------------------------------------------------------------7------|
|-----------------------------------------|--------------------------------------------------------------------|

   C#5    D#5  E5   D#5           C#5  D#5 E5            C#5         D#5      E5
                   A.H.~~~~~~                   ~~~~~                                                      ~~~
|------------------------------|----------------------|---------------------------9h11p9h11p9-----9-12--9------|
|------------------------------|----------------------|---------------------9h10---------------10---------10---|
|------------------------------|----------------------|--------------6h8h9-------------------------------------|
|--8--7----8--7----------------|----------------------|---------6h7--------------------------------------------|
|------------------6-----------|--7---6---------------|--4h6h7-------------------------------------------------|
|------------------------------|-----------7---4------|--------------------------------------------------------|

    C#5           D#5       E5                                   C#5          D#5  E5
                                                                                ~~~~~~~~~~     ~~~~~~~
|---9h119------9--11h12--9--11--------------------------------|------------------------------------------------|
|----------12-------------------12p9--12p10h12p10-9h10p9------|------------------------------------------------|
|--------------------------------------------------------11p9-|--8h11p8h11p9h11p9---------h11p9--------11------|
|-------------------------------------------------------------|------------------------------------------------|
|-------------------------------------------------------------|------------------------------------------------|
|-------------------------------------------------------------|------------------------------------------------|


Guitar 1
    b+1   r b+1    ~~~~~~           b+1                    pb+1                 b+½
|------------------------------------------------|-------------------------------------------------------------|
|---------------------------9h12p9---------9-----|--12p9--------9-9--------------------------------------------|
|---11----(11)---(11)---------------11-----------|---------11--------12-11------11---9-------9--(9)/-/-14------|
|------------------------------------------------|-------------------------11-----------11---------------------|
|------------------------------------------------|-------------------------------------------------------------|
|------------------------------------------------|-------------------------------------------------------------|
|
|Guitar 2 
|------------------------------------------------|-------------------------------------------------------------|
|------------------------------------------------|-------------------------------------------------------------|
|------------------------------------------------|-------------------------------------------------------------|
|---6-----8-----9--------------------------------|---6------------8------9-------------------------------------|
|---4-----6-----7---------6----------------------|---4------------6------7---------------6---------------------|
|--------------------------------9-----7---------|---------------------------------------------9----7----------|


Guitar 2 plays previous measure three times
   b+½   r                                                                                                 cb+1
|--16----(16)----16--------------14----|----------------------------------------------------------------14-----|
|--------------------------------------|--17-16-14\12-16-14-12-17-16-14\12-16-14-12-17-16-14\12-16-14-12---14--|
|--------------------------------------|-----------------------------------------------------------------------|
|--------------------------------------|-----------------------------------------------------------------------|
|--------------------------------------|-----------------------------------------------------------------------|
|--------------------------------------|-----------------------------------------------------------------------|

          +½                        b+1½                                                       b+2
|---------------------------------------|----------------------------------------------------------------------|
|---(14)-----------14----------12---14--|-------14------------14\----------------12------------14--------------|
|-----------------------11h13-----------|----------------------------11/13-------------------------------------|
|---------------------------------------|----------------------------------------------------------------------|
|---------------------------------------|----------------------------------------------------------------------|
|---------------------------------------|----------------------------------------------------------------------|


  hold    r                       b+1  r     
|-------------------------------------------------------------|------------------------------------------------|
|--(14)--(14)p12----------------------------------------------|------------------------------------------------|
|-----------------13--12--11------11--(11)-----11-------------|------------------------------------------------|
|-----------------------------14------------14----14-11----11-|--14p11--11--14p11------11--11/---14--11--11-11-|
|-------------------------------------------------------14----|--------------------14--------------------------|
|-------------------------------------------------------------|------------------------------------------------|

       b+1      r        ~~~~~                                                  pb+1  r
|------------------------------------------|------------------14-----------------------------------------------|
|------------------------------------------|--------------14------17p14-----14---------------------------------|
|------------------------------------------|--14--16--17-----------------16-----16---(16)--14-----16p14----14--|
|--14/16--------(16)----14----(14)\6-/-14--|---------------------------------------------------16-------16-----|
|------------------------------------------|-------------------------------------------------------------------|
|------------------------------------------|-------------------------------------------------------------------|
|
|Guitar 2
|------------------------------------------|-------------------------------------------------------------------|
|------------------------------------------|-------------------------------------------------------------------|
|------------------------------------------|-------------------------------------------------------------------|
|---4--------------------------------------|-------------------------------------------------------------------|
|---4--------------------------------------|-------------------------------------------------------------------|
|---2--------------------------------------|-------------------------------------------------------------------|


Guitar 2 plays Fig1 (8 bars)

    ~~~~~             ~~~~~  b+1   r                                               ~~~~       b+1
|----------------------------------------------------|---------------------------------------------------------|
|----------------------------------------------------|------15p12----14p12h14p12--------------5----------------|
|--(14)---16p14------14------14----(14)---16p14------|-14---------13--------------14-\-2-----------------------|
|----------------16------------------------------16--|---------------------------------------------------------|
|----------------------------------------------------|---------------------------------------------------------|
|----------------------------------------------------|---------------------------------------------------------|

Guitar 2 cont. Fig 1.

          b+1        b+1        b+1                                b+1  r b+1  r   b+1   r
|--2--------------------2-------5-------5--|--2----------------------------------------------------------------|
|-----2---5----2-----5------2-----------5--|-----5p2-----------------------------------------------------------|
|------------------------------------------|----------4-p----2-----4-----(4)------(4)------(4)-\---------------|
|------------------------------------------|-------------------------------------------------------------------|
|------------------------------------------|-------------------------------------------------------------------|
|------------------------------------------|-------------------------------------------------------------------|

Guitar 2 cont. Fig 1.
                                  b+1 rb+1 r b+1  r                           b+1 r  b+1 r  b+1 r b+1   
|---9-----9--8--7------------------------------|--------------------------------------------------------------9h12--|
|------------------10-10-7-----7---------------|--------7-9-10-9--10--12--10--12----(12)---(12)--(12)------10-------|
|---------------------------9-----9--(9)--(9)--|--(9)---------------------------------------------------11----------|
|----------------------------------------------|--------------------------------------------------------------------|
|----------------------------------------------|--------------------------------------------------------------------|
|----------------------------------------------|--------------------------------------------------------------------|

 
 Guitar 2 cont.Fig 1.
                                                                                                  ~~~~~~
|--p9-----------9--14-9----------9h12p9-----------9h12p9-----------------9h12p9--------------------------------|
|------10p9h10----------10----10---------10----10--------------------------------10----------------------------|
|--------------------------11---------------11------------9----------10--------------11------------------------|
|-----------------------------------------------------------11--------------------------11---------------------|
|--------------------------------------------------------------12\9-------------------------9\5--5\4-----------|
|--------------------------------------------------------------------------------------------------------------|

                                                                                                           b+1
|------------------------------------------------------------|---------------------------17--------17--19--19--|
|-----------------------------------9h10-12-10h12--14--12p10-|-14--14h17p14-13h16p13--------17-17--------------|
|--------------------6h7h9--8h8h11---------------------------|-----------------------16------------------------|
|-------6h7-7-6h7h9------------------------------------------|-------------------------------------------------|
|-4h5h7------------------------------------------------------|-------------------------------------------------|
|------------------------------------------------------------|-------------------------------------------------|



Guitars 1 and 2 repeat B fig.

Guitar 3 (Eric)
|--------------------------------|--------------------|---------------------|----------------|----------------------|
|---7----------7---7---7/10---8--|--------------------|-----7----7/10---8---|---8--8/10---8--|--8---8/10----8-------|
|--------------------------------|----4------6----3---|---------------------|----------------|----------------------|
|---4----------4---4---4/7----5--|--------------------|-----4----4/7----5---|---5--5/7----5--|--5---5/7-----5-------|
|--------------------------------|----2------4----1---|---------------------|----------------|----------------------|
|--------------------------------|--------------------|---------------------|----------------|----------------------|


|--------------------------------|--------------------|---------------------|----------------|
|---7----------7---7---7/10---8--|--------------------|-----7----7/10---8---|---8--8/10---8--|
|--------------------------------|----4------6----3---|---------------------|----------------|
|---4----------4---4---4/7----5--|--------------------|-----4----4/7----5---|---5--5/7----5--|
|--------------------------------|----2------4----1---|---------------------|----------------|
|--------------------------------|--------------------|---------------------|----------------|



 Guitars 1 and 2 cont. simile

|-----------------------------------|-----------------------------------------|-----------------------------------|
|-----------------------------------|-----------------------------------------|-----------------------------------|
|-----------------------------------|-----------------------------------------|-----------------------------------|
|------9-----11-----12-----11-----9-|-------9-------11-------12-------11------|-----9-----11-----12-----11-----9--|
|--9-9---9-9----9-9----9-9----9-9---|-10-10---10-10----10-10----10-10----10-9-|-9-9---9-9----9-9----9-9----9-9----|
|-----------------------------------|-----------------------------------------|-----------------------------------|


|-------------------------------------------|----------------------------------|-----------------------------------------|
|-------------------------------------------|----------------------------------|-----------------------------------------|
|-------------------------------------------|----------------------------------|-----------------------------------------|
|--------9-------11-------12-------11-------|-----9-----11-----12-----11-----9-|-------9-------11-------12-------11------|
|--10-10---10-10----10-10----10-10----10-9--|-9-9---9-9----9-9----9-9----9-9---|-10-10---10-10----10-10----10-10----10-9-|
|-------------------------------------------|----------------------------------|-----------------------------------------|
|
| Guitar 2 fill
|-1414141414141414141412-10-9---------------|----------------------------------|-----------------------------------------|
|----------------------------12108----------|----------------------------------|-----------------------------------------|
|----------------------------------1197-----|----------------------------------|-----------------------------------------|
|--------------------------------------1197-|----------------------------------|-----------------------------------------|
|-------------------------------------------|-9\-------------------------------|-----------------------------------------|
|-------------------------------------------|----------------------------------|-----------------------------------------|
 
                                                            Gtr.2: A5                   15th fr  G
                                                                                        6th st.
                                                                      \-1/    \-1/       \-1/
|-------------------------------------|-------------------------|------------------------------------------------|
|-------------------------------------|-------------------------|------------------------------------------------|
|-------------------------------------|-------------------------|--14-----(14)------(14)--------(14)----------------|
|------9-----11-----12-----11-----9---|--------9-------11-------|--14-----(14)------(14)--------(14)----------------|
|--9-9---9-9----9-9----9-9----9-9-----|--10-10---10-10----10-10-|--12-----(12)------(12)--------(12)----------------|
|-------------------------------------|-------------------------|------------------------------------------------|


Outro:

 Guitar 1
|------------------------------------------------------|---------------------------------------------------------|
|------------------------------------------------------|---------------------------------------------------------|
|------------------------------------------------------|---------------------------------------------------------|
|--2--4--0--4-----4-----4-----4-----4------4-------4---|--4--------------4---------------------------------------|
|--------------4-----2-----1---------------------------|--4--------------4---------------------------------------|
|--------------------------------3------2-------0------|--2--------------2---------------------------------------|
|Guitar 2
|------------------------------------------------------|---------------------------------------------------------|
|------------------------------------------------------|---------------------------------------------------------|
|-------11------11------11----11----11----11---11---11-|---------------------------------------------------------|
|--/14------12------11-----9-----8---------------------|--11-------------11-\------------------------------------|
|--------------------------------------10----9----7----|--9--------------9--\------------------------------------|
|------------------------------------------------------|---------------------------------------------------------|













Добавлено: 05.07.2012
Другие материалы по этой песне:

Страница создана 30.03.2012
http://primanota.ru/testament/sins-of-omission-chords.htm
Привет, Гость.
Предлагаем пройти революционный курс по гитаре.
Подарок от PrimaNota.Ru, забирай!