PrimaNota.ru - самый крупный в мире бесплатный архив песенных текстов, аккордов, табулатур и нот


Testament - The Legacy - аккорды и текст, таба, бас-таба, видео

Регистрация Запомнить меня
Войти через:  Facebook Google Twitter Vk Yandex Mail.ru

Testament - The Legacy - аккорды и текст, таба, бас-таба, видео

Печатать
Просмотров: 370
Авторы музыки: Alex Skolnick, Eric Peterson, Louie Clemente
Авторы текста: Alex Skolnick, Eric Peterson, Chuck Billy
The Legacy
Testament
		   Received: from newton.ccs.tuns.ca (newton.ccs.tuns.ca [134.190.1.4]) by post-office.nevada.edu (8.6.4/8.6.4) with SMTP id MAA06155 for  jamesb@nevada.edu>; Thu, 24 Feb 1994 12:17:36 -0800
Message-Id:  199402242017.MAA06155@post-office.nevada.edu>
Received: from [134.190.16.19] by newton.ccs.tuns.ca with SMTP
	(1.37.109.6/15.6) id AA15315; Thu, 24 Feb 94 15:54:13 -0400
Mime-Version: 1.0
Content-Type: text/plain; charset=us-ascii
X-Mailer:  WinQVT/Net v3.9>

   I was told that I should send this to you to get posted in the archive.
I hope I was not mistaken.



                             The Legacy
                             -----------
                            by Testement



 ^ h = hit       / = slide up      ~~~~ = vibato      PH = pinch harmonic
 ^ p = pulloff   \ = slide down    PM.. = palm mute   Harm = nat. harmonic

intro
 Gtr. 1 ("clean" w/chorus)
|-----|----------------|-----------------|-----------------|-----------------|
|-----|----------------|-----------------|-----------------|-----------------|
|-----|---------2------|-----------------|-----------------|-----------------|
|-----|-0--------------|---------0---3-5-|3/5--------3-3/5-|-----------0-----|
|-----|----------------|-----------------|-----------------|-----------------|
|-----|----------------|-----------------|-----------------|-----------------|
|                                                                            |
|Gtr. 2 ("clean" w/chorus)                                                   |
|-----|----0-----0-----|-0-----0-----0---|---------0-------|---------0-------|
|-----|------3-----3---|---3-----3-----3-|---3-------3-----|---3-------3-----|
|-----|-2------2-----2-|-----2-----2-----|-3---0---------0-|-3---0-----------|
|-----|-0--------------|-----------------|-------3-----3---|-------3---------|
|-0-3-|----------------|-----------------|-----------------|-------------0-3-|
|-----|----------------|-----------------|-----------------|-----------------|




|----------------|-----------------|-------------------|-----------------|
|----------------|-----------------|-------------------|-----------------|
|----------------|-------------2---|-------------------|-----------------|
|-0--------------|---------0-3--3/5|-------------3-----|-5---------------|
|----------------|-----------------|-------------------|-----------------|
|----------------|-----------------|-------------------|-----------------|
|                                                                        |
|                                                 h p                    |
|-0--0-----0-----|-0-----0-----0---|---------0---------|---------0-------|
|-3----3-----3---|---3-----3-----3-|---3-------3-------|---3-------3-----|
|-2------2-----2-|-----2-----2-----|-----0-------------|-----0-----------|
|-0--------------|-----------------|-3-----3-----0^3^0-|-3-----3-----0-3-|
|----------------|-----------------|-------------------|-----------------|
|----------------|-----------------|-------------------|-----------------|



                                                   p
|----------------|-----------------|-----------------|-----------------|
|----------------|-------------2---|-----------------|-----------------|
|-2--------------|---------0-3---5-|---------5/7-----|-----------------|
|----------------|-----------------|------------7\5^3|---------------2/|
|----------------|-----------------|-----------------|3/5--------------|
|----------------|-----------------|-----------------|-----------------|
|                                                                      |
|                                                                      |
|----0-----0-----|-0-----0-----0---|---------0-------|---------0-------|
|------3-----3---|---3-----3-----3-|---3-------3-----|---3-------3-----|
|-2------2-----2-|-----2-----2-----|-----0-----------|-----0-----------|
|-0--------------|-----------------|-3-----3-----0-2-|-3-----3---------|
|-0--------------|-----------------|-----------------|-------------0-3-|
|----------------|-----------------|-----------------|-----------------|



                                                Harm   Harm
|----------------|-----------------|-----------------|-----------------|
|----------------|-----------------|--------------12-|---12------------|
|---4------------|-------------3---|-----------------|-----------------|
|/4--------------|-----------------|-----------------|-----------------|
|----------------|-----------------|-----------------|-----------------|
|----------------|-----------------|-----------------|-----------------|
|                                                                      |
|                                                                      |
|----------------|-0---------------|-----------------|-0---------------|
|----------0-----|---0-------------|------0----0-----|---0-------------|
|-----0-0----0---|-----0-----------|--------0----0---|-----0-----------|
|---4----------4-|-------4-----5-4-|-4-------------4-|-------------5-4-|
|-2--------------|-----------0-3---|-2---------------|----------0--3-2-|
|----------------|-----------------|-----------------|-----------------|




|-----------------|-----------------|-----------------|-----------------|
|-----5---5-----5-|-----3---3---3---|-----5---5-----5-|-----3---3---3---|
|-----0---0-----0-|-----0---0---0---|-----0---0-----0-|-----0---0---0---|
|-----------------|-----------------|-----------------|-----------------|
|-----------------|-----------------|-----------------|-----------------|
|-----------------|-----------------|-----------------|-----------------|
|-----------------|-----------------|-----------------|-----------------|
|                                                                       |
|                                                                       |
|-----------------|---------0-------|---------0-------|---------0-------|
|---0-----0-----0-|---0-------0-----|---0-------0-----|---0-------0-----|
|-----0-----0-----|-----0-------0---|-0---0-------0---|-----0-------0---|
|-----------------|-------4-------4-|---------------4-|-------4-------4-|
|-3-----3-----3---|-2---------------|-------3---------|-2---------------|
|-----------------|-----------------|-----------------|-----------------|




|-----------------|------------------|-----------------|----------------|
|-----7---7-----7-|------7---------7\|\5---5---------5\|\3---3---3----3-|
|-----4---4-----4-|------4---------4\|\2---2---------2\|\0---0---0----0-|
|-----------------|------------------|-----------------|----------------|
|-----------------|------------------|-----------------|----------------|
|-----------------|------------------|-----------------|----------------|
|                                                                       |
|                                                                       |
|---------0-------|------------------|---------0-------|----------------|
|---0-------0-----|----0-----0-----0-|---0-------1---0-|---0-----0------|
|-----0-------0---|------0-----0-----|-----0-------0---|-----0-----0----|
|---------------4-|------------------|-------4---------|-------4--------|
|-3-----3---------|3\2-----2-----2---|-0---------------|--------------0-|
|-----------------|------------------|-----------------|-3--------------|



                                                     dist on    h
|----------------|-------------------|------------------|------------7--|
|----------------|-------------------|------------------|------0^5/7----|
|-6--------------|-------------------|------------------|---------------|
|-4--------------|-------------------|------------------|---------------|
|----------------|-------------------|------------------|---------------|
|----------------|-------------------|------------------|---------------|
|                                                                       |
|                                            p   p       Harm           |
|---------0------|-3--------2--------|-3-(3)-^2--^0-----|-12------------|
|-----0----------|-------------------|------------------|-12------------|
|----------------|-------------------|------------------|-12------------|
|----------------|-------------------|------------------|-12------------|
|-4--------------|-------------------|------------------|---------------|
|-0-------0------|-3--------2--------|-0----------------|------------0--|



                          ~~~~              ~~~~ p       p p p~~~~
|------------------|-----------------|------------------|------------7------|
|--8---------10^12-|-8---(8)--1012-10|-8-7-(7)---^3-7/10|^9^8^7--------8^7--|
|------------------|-----------------|------------------|-----------------7\|
|------------------|-----------------|------------------|-------------------|
|------------------|-----------------|------------------|-------------------|
|------------------|-----------------|------------------|-------------------|
|                                                                           |
|                                 p                                         |
|----------0-------|---------0-------|----------0-------|----------0--------|
|----0---0---0---0-|---0---0---0-----|----1---0---0---0-|----0---0---0------|
|------0-----------|-----0-----------|------0-----------|------0-------0----|
|------------------|-----------------|------------------|-------------------|
|--------------7---|-7-----------7^5-|-5------------5---|-5--------------5--|
|--0---------------|-----------------|------------------|-------------------|



                                                                  We're
                        A.H......|  PM.|
   ~~~~~~~~  h          1/2  1/2    [.rake.]    h  p     h  p
|-----------------|-----/\---/\----------12-|-15^14^15----------------|
|-----------------|----/--\-/--\--------12--|-------------------------|
|\(6)-------4^6-6-|---6---(6)--(6)-----13---|----------14^12^11\7-----|
|-----------------|-------------------11----|----------------------9--|
|-----------------|------------------11-----|-------------------------|
|-----------------|-------------------------|-------------------------|
|                                                                     |
|                                                                     |
|---------0-------|-------------0-----------|-------------------------|
|-----------0-----|----------0-----0--------|-------------------------|
|---0---6-----6---|-------6----------6------|-------------------------|
|-----6---------6-|----6--------------------|-------0--------0-----0--|
|-4---------------|-4-----------------------|----0--------0-----------|
|-----------------|-------------------------|-0--------0--------0-----|



  gonna take you back________  through the pages of the past.____  Just an-

|-----------------|-----------------|-----------------|-------------------|
|-----------------|-----------------|-----------------|-------------------|
|-9---------------|-----------------|-----------------|-------------------|
|-----------------|-----------------|-----------------|-------------------|
|-----------------|-----------------|-----------------|-------------------|
|-----------------|-----------------|-----------------|-------------------|
|                                                                         |
|                                                                         |
|-----0-----------|---------0-------|---------0-------|---------0---------|
|-------0---0-----|---0---0---0-----|---0-------0-----|-----------0-------|
|---0-----0-----0-|-----0-----------|-----0-----------|------0------0-----|
|-2-----------2---|-2-----------9\7-|-------7-----7---|----7--------------|
|-----------------|-------------7\5-|-5-------------5-|4/5----------------|
|-----------------|-----------------|-----------------|-------------------|



  other_____    lone   -  ly     boy.______        Ooh,I can laugh and play

|---------0-------|---------0-------|-----3-----2-----|-----------0-------|
|-------0---0-----|-------0---0-----|-------------3-0-|---------0---0---0-|
|-----6-------6---|-----6-------6---|-------------0---|-------------0---0-|
|---6-----------6-|---6-----------6-|-----0-----0-0---|----0^2--------2---|
|-4---------------|-4---------------|---2-----0-------|-------------------|
|-----------------|-----------------|-3-----2---------|-0-----------------|



  ____      and live in any other way._____        Then the devil_____

|---------0-------|---------0-------|----------0-------|---------0--------|
|---0---0---0-0-0-|---0---0---0-----|------0-----0-----|-------0---0------|
|---0-0-0---0-0-0-|-----0-----------|------7-------0---|-----6-------6----|
|-2---------------|-7-----------7\5-|-5/7----5-------7-|---6-----------6--|
|-----------------|-5-----------5\3-|-3/5------------5-|-4----------------|
|-----------------|-----------------|------------------|------------------|



  took__  my  soul.____           The fortune and the fame,____   I  knew

|---------0-------|-----3-----2-----|-----0---0-----0--|---0------0-------|
|-------0---0-----|-------------3---|-0---------0-0-0--|-0-0--------0-----|
|-----6-------6---|-------------0---|---0---0-----0----|-0---0------------|
|---6-------------|-----0-----0---0-|------------------|-------9------9\7-|
|-4---------------|---2-----0-------|------------------|--------------7\5-|
|-----------------|-3-----2---------|-0----------------|------------------|



  I was not the same_____        and    I know____  I'd   nev-er  re - turn

|---------0-------|-------0---0-------|---------0-------|---------0--------|
|---0-------0-----|-----0-------0-----|-----------0-----|-----0------------|
|-----0-----------|---------------7---|-6-----6-----6---|-----6-----6------|
|-------7-----7-5-|-3/7-----------5---|---5---6-------6-|---6---6-----6----|
|-5-----------5-3-|-3/5-----5-------5-|-4---4-----------|-4-----------4/10-|
|-----------------|-------------------|-----------------|------------------|




                        p  p p       1/2    ~~~~trem         p P.H.   h
|------------------8-|12^10^8^7------/\|----------------|-------------------|
|----------------10--|-----------8-10--|(12)-----12-----|1210^8-7(7)--------|
|---------------9----|-----------------|---------==-----|----------------7--|
|--------------------|-----------------|----------------|------------4^7----|
|--------------------|-----------------|----------------|-------------------|
|--------------------|-----------------|----------------|-------------------|
|                                                                           |
|                                                                           |
|--------------------|---------0-------|-------0--------|-----------0-------|
|----0---------------|-------0---0---0-|-----0---0------|-------------0-----|
|------0----0--------|---0-------0---0-|---0------------|-------0---------0-|
|-12-----11---0-12\--|-----0-----------|----------------|-7-------7-----7---|
|-10-----9------10\--|-7-----------7---|-7----------7-5-|-----5-------------|
|------------------0-|-----------------|----------------|-------------------|




   h  ~~~~      pp pp pp   P.H. 1/2                    h    ~~~~  hh hp hh
|-------------------------|-----/\------------------|-----------------------|
|-------------------------|----/--|-----------------|-----------------------|
|-9^11----------975-------|---/---|-----------------|----------------575----|
|------------------975----|--/----|--------------2--|-------------579---245-|
|---------------------975-|-4-----4-----4-----------|-2^4-(4)---------------|
|-------------------------|----------------2--4-----|-----------------------|
|                                                                           |
|                                                                           |
|-------------0-----------|-------------0-----------|-----------0-----------|
|----0-----------0--------|-------0--------0--------|--------------0--------|
|-------0-----------------|----------6--------6-----|--------6--------6-----|
|-7--------7--------7-----|----6-----6-----------6--|-----6--------------6--|
|----------------------5--|-4-----------------------|-4---------------------|
|-------------------------|-------------------------|-----------------------|



               Looking at the sky,_______      I knew   I would never die.__
   p          Harm              w/bar\ slow dive
|-----------------|-----------------|--\--------------|--------------------|
|--------------5--|------(5)--------|----\------------|--------------------|
|--------------5--|------(5)--------|------\----------|--------------------|
|-4^2-------------|-----------------|--------\--------|--------------------|
|-----5-----------|-----------------|----------\------|--------------------|
|-------3\2-0-----|-----------------|-----------------|--------------------|
|                                                                          |
|                                                                          |
|-----------------|---------0-------|---------0-------|-----------0--------|
|-----------------|-------0---0---0-|---0---0---0-----|------0------0------|
|-----------------|-----0-------0---|-----0-----------|------7--------7----|
|-----0-----0---0-|-----------------|-------------9\7-|---7-----7-------7--|
|---2-----0-------|-----------------|-7-----------7\5-|-5------------------|
|-3-----2-----3---|-0---------------|-----------------|--------------------|



  ___       And for-ev-er_____        shin - ing  through.____        Wish_

|---------0-------|---------0-------|---------0-------|-----3------2-------|
|-----0-----0-----|-------0---0-----|-------0---0-----|---3-----3--3--3----|
|-----0-----------|-----6-------6---|-----6-------6\--|-------2----2--0----|
|---7---7-----7\6-|---6-----------6-|---6---------6\--|-0---0------0--0----|
|-5-----------5\4-|-4---------------|-4-----------4\--|---2-----0----------|
|-----------------|-----------------|-----------------|-3-----2-------0----|



  -- the sky would say.____     that the blue would turn to grey____   and_

|------0---0-------|---------0-------|-------------------|---------0-------|
|--------0---0---0-|---0-------0-----|-----------0-----0-|-------0---0-----|
|--------0-------0-|---0-0-----------|-------0-----0-----|-----0-----------|
|--------------0---|-------0-----9\7-|----7----7-----7---|---7---------7\6-|
|---0--------------|-7-----------7\5-|-5-------------5---|-5-----------5\4-|
|-0----------------|-----------------|-------------------|-----------------|



  I know________    that   I'd__       be    there._____

|-------------0----------|-------------0----------|-------3----------------|
|----------0-----0-------|----------0-----0-------|----3--3-----------3----|
|-------6-----------6----|-------6-----------6----|-0-----------------0----|
|----6-----------------6-|----6-----------------6-|-------0--------0--0--0-|
|-4----------------------|-4----------------------|----2--------0----------|
|------------------------|------------------------|-3--------2-------------|



 speed up
 Gtr.1 w/dist
|-----5---5---------|-----5---5--------|-----2---2-------2|-----2---2-----2-|
|-5-5-5-5-5-5-------|-5-5-5-5-5-5------|---2---2-2-2-----2|---2---2-2-2-2-2-|
|---7---7-----7-----|---7---7-----7----|-4-4---3-----4----|-4-4---4---------|
|-----------------8-|-----------------8|------------------|-----------------|
|-------------------|------------------|------------------|-----------------|
|-------------------|------------------|------------------|-----------------|
|                                                                           |
|  PM..|  PM.......|   PM..|  PM......|   PM..|  PM......|                  |
|-------------------|------------------|------------------|-----------------|
|-------------------|------------------|------------------|-----------------|
|-3-----3-----------|-3-----3----------|------------------|-----------------|
|-3-----3-3---3-3-0-|-3-----3-----3----|-4-----4----------|-4-----4-------3-|
|-1-1-1-1---1-1---1-|-1-1-1-1-1-1-1-1-1|-4-4-4-4-4-4-4-4-4|-4-4-4-4-----4-1-|
|-------------------|------------------|-2-----2----------|-2-----2-2-2-2---|



                                                                      Life_

|-----5---5---------|-----5---5--------|-----2---2-------2|--2--2------2---|
|-5-5-5-5-5-5-------|-5-5-5-5-5-5------|---2---2-2-2-----2|--2--2---2--2---|
|---7---7-----7-----|---7---7-----7----|-4-4---3-----4----|--4-------------|
|-----------------8-|-----------------8|------------------|----------------|
|-------------------|------------------|------------------|----------------|
|-------------------|------------------|------------------|----------------|
|                                                                          |
|  PM..|  PM.......|   PM..|  PM......|   PM..|  PM......|                 |
|-------------------|------------------|------------------|----------------|
|-------------------|------------------|------------------|----------------|
|-3-----3-----------|-3-----3----------|------------------|--6--6---6--6---|
|-3-----3-3---3-3-0-|-3-----3-----3----|-4-----4----------|--4--4---4--4---|
|-1-1-1-1---1-1---1-|-1-1-1-1-1-1-1-1-1|-4-4-4-4-4-4-4-4-4|----------------|
|-------------------|------------------|-2-----2----------|----------------|



  ___ was like a fan  -  ta - sy___      tak-en by re-al - i - ty._____

|------------------|-------------------|----------------|-------------------|
|------------------|-5-8-8-7-7-10-10---|----------------|-10-8-7-8-7--------|
|---4---4--4---4---|-------------------|----------------|------------9-7-9--|
|---2---2--2---2---|-2-5-5-4-4-7--7----|-7-----7--7-----|-7--5-4-5-4--------|
|------------------|-----------------0-|-5-----5--5-----|------------7-5-7--|
|------------------|-------------------|----------------|-------------------|



   Does an-y-one re-mem - ber me?_     You___     once     knew   me.

|------------------|---------------------|---------------|-----------------|
|------------------|-------7-7-7/8\7-----|---------------|-----------------|
|------------------|-5-7-9-----------9-7-|---------------|-----------------|
|---5---5--5---5---|-------4-5-4/5\4-----|-4------4------|-4------0--------|
|---3---3--3---3---|-3-5-7-----------7-5-|-2------2------|-2------0--------|
|------------------|---------------------|---------------|-----------------|



  Flashes of the day,____       I knew I was here to stay.____         But
  PM......|           PM...|          PM......|      PM...................|
|-----------------|------------------|-----------------|-------------------|
|-----------------|------------------|-----------------|-------------------|
|-----------------|-------------9-9--|-----------------|-------------------|
|----------9------|-9-----0----------|-7-------7---7---|-----------------7-|
|-7--------7---0--|-7-0-0-0-7---7-7--|-5-5-5-5-5-----5-|-5-5-5-5-5-5-5-5-5-|
|-0--0-0-0--------|------------------|-----------------|-------------------|



   no one_____     stays_   the same.___         (w/dist)
                                                    h        p         PM
|----------------|----------------|-------------|-12^15---------------------|
|----------------|----------------|-------------|------15-------------------|
|----------------|----------------|-------------|--------15-1412\9----9---7-|
|----------------|----------------|-------------|-----------------------9---|
|----------------|----------------|-------------|---------------------------|
|----------------|----------------|-------------|---------------------------|
|                                                                           |
|            PM.       PM.                        ("clean" w/chorus)        |
|----------------|----------------|-------------|------------------0--------|
|----------------|----------------|-------------|--------------0------------|
|----------------|----------------|-------------|--------0-------0---0---0--|
|--6----6-6--6---|-6-----6----6-6-|-----------5-|--2-------------------0----|
|--4----4-4--4-0-|-4-4-4-4----4-4-|-5----4----5-|---------------------------|
|----------------|----------------|-3----2----3-|---------------------------|



   h    PH   PM.             PM.full  p  p  h  p p p  h  p p p     ~~
|-----------------|-------------|-\-|---------------------------|-----------|
|-----------------|-------8----10-10|-^8---1011108---1011108----|------9--9-|
|-7^9---7---9---7-|----9------9-----|---9^7-------9^7-------9^7-|------9--9-|
|-----9-------9---|-----------------|---------------------------|-11-11-11--|
|-----------------|-----------------|---------------------------|-----------|
|-----------------|-----------------|---------------------------|-----------|
|                                                                           |
|                                                                           |
|---------0-------|---------0-------|-------------0-------------|------0----|
|-----0-----0-----|-------0---0---0-|---------0-------0---------|-----0-0---|
|-------0---------|-----0-----------|-----0---------------------|----6---6--|
|-9---------------|---7---------7---|-7-------------------------|---6-----6-|
|-7-----------7\5-|-5-----------5---|---------------------5-7---|--4--------|
|-----------------|-----------------|---------------------------|-----------|


       ~~~           p          p   p p   h p          ~~~    ~~
|-----------------|----------------------------|----------------|
|(9)-------9-10-12|13121013-131312------121312-|-------------12-|
|(9)--------------|---------------141211-------|-12-------------|
|-----11----------|----------------------------|---14-12--14----|
|-----------------|----------------------------|----------------|
|-----------------|----------------------------|----------------|
|                                                               |
|                                                               |
|---------0-------|----------------------------|-------0--------|
|-------0---0-----|----------------------------|-----0---0---0--|
|-----6-------6\--|-------0-----------------0--|-----------0----|
|---6-------------|-------0--------0--------0--|----------------|
|-4---------------|----2--------0--------------|-7--------------|
|-----------------|-3--------2----------3------|----------------|




|----------------------------------|
|-------------------------12-15----|
|--12------------------12----------|
|------14---12------14-------------|
|----------------------------------|
|----------------------------------|
|                                  |
|                                  |
|---------------0------------------|
|---0-------0----------------------|
|-------0--------------------------|
|-------------------0--------------|
|--------------------------7---5---|
|----------------------------------|



               h              PH~~ h       h     h  p
|--------------------------------|-----------------------------|
|-(15)12-------------------------|-----------------------------|
|-------12-----------------------|-------------12^15^12--------|
|---------14-12^14-----12----12--|-^14---12^14---------12------|
|-------------------------14-----|----14-----------------14-12\|
|--------------------------------|-----------------------------|
|                                                              |
|                                                              |
|--------------------------------|-------------0---------------|
|------------------0-------------|----0-----------0------------|
|------0--------------0----------|-------0-----------0---------|
|-----------7----------------7---|-----------------------------|
|-(5)----------5-----------------|-5--------5-------------5----|
|--------------------------------|-----------------------------|

                                       1/2  1/2      1/2        1/2
                                      /   \  /\       /          /
|--------------------|------------12-14-|-(14)(14)^1214--(14)^1214-|
|---------------9----|------------------|--------------------------|
|\11---------9--9/11\|\9----------------|--------------------------|
|-------------11-----|------------------|--------------------------|
|--------------------|------------------|--------------------------|
|--------------------|------------------|--------------------------|
|                                                                  |
|                                                                  |
|----------0---------|---------0--------|--------------------------|
|--------0---0-------|-------0---0------|--------------------------|
|--------------6-----|-----6-------6----|--------------------------|
|----6-6---------6---|---6------------6-|--------------------------|
|--4-----------------|-4----------------|---5--------4--------5----|
|--------------------|------------------|---3--------2--------3----|


        1/2                                                full      full
    \    |    ~~~                                           /   ~~~   / \*1/2
|---(14)14-(14)-|-121415121415121515121415121412121415120-15|(15)----15-(15)|
|---------------|-------------------------------------------|---------------|
|---------------|-------------------------------------------|---------------|
|---------------|-------------------------------------------|---------------|
|---------------|-------------------------------------------|---------------|
|---------------|-------------------------------------------|---------------|
|                                                           *partial release|
|                                                                           |
|---------------|-------------------------------------------|---------------|
|---------------|-------------------------------------------|---------------|
|---------------|-------------------------------------------|---------------|
|----------9----|-9----------9---------9------9-------------|-7-7-7-7-7-----|
|-7-7-7--7-7--0-|-7----------7---------7------7-------------|-5-5-5-5-5---0-|
|-0-0-0--0------|-------0-----------------------------------|---------------|


      1/2            full     full        full  1/2  full               full
       |   ~~~~~     /         /    ~~~~   |    \     |    ~~~~          /
|-----15(15)-------19------|-19--(19)-----19---(19)|-19-(19)------15-17-17-|
|--------------------------|-----------------------|------------17---------|
|--------------------------|-----------------------|-----------X-----------|
|--------------------------|-----------------------|-----------------------|
|--------------------------|-----------------------|-----------------------|
|--------------------------|-----------------------|-----------------------|
|                                                                          |
|      PM................|                                                 |
|--------------------------|-----------------------|-----------------------|
|--------------------------|-----------------------|-----------------------|
|--------------------------|-----------------------|-----------------------|
|------7-7-7-7-7-7--7-7-7--|---6-----6--6-----6----|---6-----6--6-----6----|
|------5-5-5-5-5-5--5-5-5--|---4-----4--4-----4----|---4-----4--4-----4----|
|------5-5-5-5-5-5--5-5-5--|-----------------------|-----------------------|



            full         full        full           full full
    \       /    \       /    \       /    \         /   /             ~~~~~
|--(17)^15-17---(17)^15-17---(17)^15-17---(17)^15-|-19--19----(17)17(17)----|
|-------------------------------------------------|-------------------------|
|-------------------------------------------------|-------------------------|
|-------------------------------------------------|-------------------------|
|-------------------------------------------------|-------------------------|
|-------------------------------------------------|-------------------------|
|                                                                           |
|                                                                           |
|-------------------------------------------------|-------------------------|
|-------------------------------------------------|-------------------------|
|-------------------------------------------------|-------------------------|
|-------------------------------------------------|------------------9------|
|--5-----------4-----------------------5----------|--7-----7-7-7-----7---0--|
|--3-----------2-----------------------3----------|--0-----0-0-0------------|


                                              1 1/2     1 1/2      1 1/2
                                                /     \   /      \   /
|---151719151719151719151719151719151719151719-19|---(19)19-----(19)19------|
|------------------------------------------------|--------------------------|
|------------------------------------------------|--------------------------|
|------------------------------------------------|--------------------------|
|------------------------------------------------|--------------------------|
|------------------------------------------------|--------------------------|
|                                                                           |
|                                                  PM.......|               |
|------------------------------------------------|--------------------------|
|------------------------------------------------|--------------------------|
|------------------------------------------------|--------------------------|
|-9----------------9----------9-----9------------|-7-7-7---7-7--------------|
|-7----------------7----------7-----7------------|-5-5-5---5-5-----------0--|
|-----------0------------------------------------|--------------------------|


      1 1/2       full               full                full
   \   /   ~~~~   /   \     ~~~~       /  \      ~~~~      /  \
|-(19)19(19)---22---(22)|--21-------22---(22)|--21-------22---(22)|
|-----------------------|--------------------|--------------------|
|-----------------------|--------------------|--------------------|
|-----------------------|--------------------|--------------------|
|-----------------------|--------------------|--------------------|
|-----------------------|--------------------|--------------------|
|                                                                 |
|                                                                 |
|-----------------------|--------------------|--------------------|
|-----------------------|--------------------|--------------------|
|-----------------------|--------------------|--------------------|
|--7---7-7-7-7-7--7-7-7-|--6-----6--6-----6--|--6-----6--6-----6--|
|--5---5-5-5-5-5--5-5-5-|--4-----4--4-----4--|--4-----4--4-----4--|
|--5---5-5-5-5-5--5-5-5-|--------------------|--------------------|



                                          Turn   the   pag   -   es    back
                                          Life   was   like_     a     fan-
                         full             (tacet 2nd time)
|-22-19-------------------/\------------|----------------------------------|
|-------22-20------------/--|-----------|----------------------------------|
|-------------21-19-----/---|-----------|--21------------------------------|
|-------------------21-19--(19)17----21-|----------------------------------|
|---------------------------------19----|----------------------------------|
|---------------------------------------|----------------------------------|
|                                                                          |
|                                                                          |
|---------------------------------------||---------------------------------|
|---------------------------------------||.--------------------------------|
|---------------------------------------||--4----------4----4------4-------|
|---------------------------------------||.-2----------2----2------2-------|
|-5-----------4----------------5--------||---------------------------------|
|-3-----------2----------------3--------||---------------------------------|



  in time_           through the chapters in my mind.__
  ta - sy__          tak - en by__ re - al - i - ty.___

|------------------|----------------|------------------|
|-5-8-8-7-7-10-10--|----------------|-10-8-7-8-7-------|
|------------------|----------------|------------9-7-9-|
|-2-5-5-4-4-7--7---|-7-----7-7------|-7--5-4-5-4-------|
|----------------0-|-5-----5-5------|------------7-5-7-|
|------------------|----------------|------------------|


  Life's to short to leave__ behind._   It's__    too    late__    now.
  Does an-y  - one re-mem-ber me?_      You___    once   knew      me.

|-----------------|---------------------|----------------|----------------||
|-----------------|-------7-8-7/8\7-----|----------------|---------------.||
|-----------------|-5-7-9-----------9-7-|----------------|----------------||
|-5----5--3----5--|-------4-5-4/5\4-----|-4-------4------|-5-------7-----.||
|-3----3--3----3--|-3-5-7-----------7-5-|-2-------2------|-3-------5------||
|-----------------|---------------------|----------------|----------------||




                         h        p  p      1/2  ~~~~~~~~~~~
|-12--------------|---------------------|---/--\-------------|
|----12---11------|-----------14--^13^12|-11--(11)-----------|
|-----------------|---------11----------|--------------------|
|-----------------|----12^14------------|--------------------|
|-----------------|---------------------|--------------------|
|-----------------|---------------------|--------------------|
|                                                            |
|("clean" w/chorus)        PM..|                             |
|---------0---0---|---------0-0---------|---------0----------|
|---0---0---0---0-|---0---0-0-0---------|---0---0---0--------|
|-----0-----------|-0---0---------------|-----0-------0----0-|
|-----------------|---------------9-7---|--------------------|
|-7---------------|---------------7-5---|-5--------------5---|
|-----------------|---------------------|--------------------|



                                                                       Flash-
                      p      ~~~        h  ~~~~            p
|--------------------|---------------|---------------12|-15^14---------------|
|---1012141210-------|---------------|--------------12-|------15-------------|
|-------------13119--|---------------|-------------12--|--------14^12--------|
|------------------12|^11-(11)--9-9--|-9^11-------14---|-------------16-12---|
|--------------------|---------------|-----------------|------------------14-|
|--------------------|---------------|-----------------|---------------------|
|                                                                            |
|                                                                            |
|---------0----------|-------0-------|---------0-------|---------------------|
|---0---0---0--------|-----0---0-----|-------0---0-----|---------------------|
|-----0--------------|-----------6---|-----6-------6---|---------------------|
|--------------------|---6---------6-|---6-----------6-|------0------0-------|
|-5---------------5--|-4-------------|-4---------------|----2------0------2--|
|--------------------|---------------|-----------------|--3------2------3----|



  -es of the day,_____       I knew I was here to stay,_______         but
                                                         p
|-----------------|-----------------|-----------------|15^14---------------|
|-----------------|-----------------|-----------------|-----15-------------|
|-----------------|-----------------|-----------------|-------14^12--------|
|-14--------------|-----------------|-----------------|------------16-12---|
|-----------------|-----------------|-----------------|-----------------14-|
|-----------------|-----------------|-----------------|--------------------|
|                                                                          |
|                                                                          |
|---------0-------|---------0-------|---------0-------|----------0---------|
|-----------0---0-|---0---0---0-----|-------0---0-----|--------0---0-------|
|-------------0---|-----0-----------|-----0-------0---|------0-------0-----|
|-------0---------|-------------9\7-|-7---------------|--------------------|
|---5^7-----------|-7-----------7\5-|-5-------------7-|-5---------------5--|
|-0---------------|-----------------|-----------------|--------------------|



   no_ one___       knows_   my name.__________
            ~~~~~~~~            dist off ("clean" w/chorus)      p  trill
|-----------------|-----------------|-----------------|---------3^2-(2-3)2-|
|-----------------|-----------------|-----------------|-------3------------|
|-----------------|-----------------|-----------------|-----0--------------|
|-11-----(11)-----|-----------------|-----------------|---4----------------|
|-----------------|-----------------|-----------------|--------------------|
|-----------------|-----------------|-----------------|--------------------|
|                                                                          |
|                                                                          |
|---------0-------|---------0-------|-----------------|-0------------------|
|-------0---0-----|-------0---0-----|-----------------|-0------------------|
|-----------------|-----6-------6-0-|-----------------|-0------------------|
|-----6--------6--|---6-------------|-----0-----0-----|-2------------------|
|-4-------------6-|-4---------------|---2-----0-----2-|-2------------------|
|-----------------|-----------------|-3-----2-----3---|-0------------------|     
Добавлено: 22.06.2013
Другие материалы по этой песне:

Страница создана 24.02.2012
http://primanota.ru/testament/the-legacy-chords.htm
Привет, Гость.
Предлагаем пройти революционный курс по гитаре.
Подарок от PrimaNota.Ru, забирай!