PrimaNota.ru - самый крупный в мире бесплатный архив песенных текстов, аккордов, табулатур и нот


Ted Nugent - Freedom fuck up s - таба, видео

Регистрация Запомнить меня
Войти через:  Facebook Google Twitter Vk Yandex Mail.ru

Ted Nugent - Freedom fuck up s - таба, видео

Печатать
Просмотров: 76


-3-------543-------------
-----444--------------9--
--------------5-------55-
-------------4-----555---
---------------5555------
---------10--4h5-6-------


3h7-5-------------------
---5--------66----------
------5-----6--8--------
---5--------------------
----------555-----------
-------555--------------


6--------------1----5---
--6------------3-----2--
-----6--------5-------1-
-------6-----4-------4--
-----6------------2-2---
------6----------2---9--

from iraq.....
freedom.......
rangers killing and killed......

Добавлено: 26.08.2013
Другие материалы по этой песне:
  • Аккорды и текст

Страница создана 26.08.2013
http://primanota.ru/ted-nugent/freedom-fuck-up-s-chords.htm
Привет, Гость.
Предлагаем пройти революционный курс по гитаре.
Подарок от PrimaNota.Ru, забирай!