PrimaNota.ru - самый крупный в мире бесплатный архив песенных текстов, аккордов, табулатур и нот


Ted Nugent - Sunrize - таба, видео

Регистрация Запомнить меня
Войти через:  Facebook Google Twitter Vk Yandex Mail.ru

Ted Nugent - Sunrize - таба, видео

Печатать
Просмотров: 61
Уроки эстрадного вокала в Санкт-Петербурге
|------------------------------------------|
|------------------------------------------|
|------------------------------------------|
|------------------------------------------|
|-----------------------------------5-4----|
|--4/5--5-5-5-5--5-5-----4/5--5-7-5--------|   x2

|------------------------------|
|-------2h3---------2h3----2---|
|------2----------2----4-1-----|
|----2----------2--------------|
|--0----------0----------------|
|------------------------------|  x2

|-----------------------------------|
|-----------------------------------|
|-----------------------------------|
|--------7~----------7~-------4~----|
|--4h5h7~------4h5h7---7p5p4~-------|
|-----------------------------------|   x2

|--------------------------------------------------------------|
|--------------------------------------------------------3-2---|
|------2----------------2-------2-----------2------------------|
|----2---2---2-4p2----2---2---2---2-------2---2---2-4----------|
|--0-------0--------0-------------------0-------0--------------|
|---------------------------3----------------------------------|   x2

|---------------------------------------------------------------------------------------------|
|---------------------------------------------------------------------------------------------|
|---------------------------------------------------------------------------------------------|
|--5\4--2-0------------5\4--2-0---------------------------------------------------------------|
|-----------3/5--5-5--------------3/5--5-5----5\4--2-0-0--------------5\4--2-0-0--------------|
|---------------------------------------------------------3/5--5-5----------------3/5--5-5----|

|------------------------------------------|
|------------------------------------------|
|------------------------------------------|
|--5\4--2-0------------5\4--2-0------------|
|-----------3/5--5-5--------------3/5--5-5-|
|------------------------------------------|

|--------------------------------------------------------------|
|--------------------------------------------------------3-2---|
|------2----------------2-------2-----------2------------------|
|----2---2---2-4p2----2---2---2---2-------2---2---2-4----------|
|--0-------0--------0-------------------0-------0--------------|
|---------------------------3----------------------------------|

|-------------------------------------------|
|-------------------------------------------|
|------2------------------------------------|
|--------2---4------------------------------|
|--0-0-----0---5-------------5-5-5-5-4-4----|
|----------------5-5-5--3/5-----------------|  x2


|-------------------------------|-------------------------------|
|-------------------------------|-------------------------------|
|-------------------------------|-------------------------------|
|-------------------------------|-------------------------------|
|--2-2-2-3-3-3-5-5-5--5-5-3-0---|--2-2-2-3-3-3-5-5-5--5-5-3-0---|
|-------------------------------|-------------------------------|


|------------------------------------------------------------|
|------------------------------------------------------------|
|------------------------------------------------------------|
|------------------------------------------------------------|
|--2-2-2-3-3-3-5-5-5--5-5-3-0--------------------------------|
|--------------------------------0-0-0-0-0-0-0-0-0-0-2-3-4---|


|--------------------------------------------------------------|
|--------------------------------------------------------3-2---|
|------2----------------2-------2-----------2------------------|
|----2---2---2-4p2----2---2---2---2-------2---2---2-4----------|
|--0-------0--------0-------------------0-------0--------------|
|---------------------------3----------------------------------|  x2


|-----------------------------------|
|-----------------------------------|
|-----------------------------------|
|--------7~----------7~-------4~----|
|--4h5h7~------4h5h7---7-5p4~-------|
|-----------------------------------|   x2


|--------------------------------------------------------------|
|--------------------------------------------------------3-2---|
|------2----------------2-------2-----------2------------------|
|----2---2---2-4p2----2---2---2---2-------2---2---2-4----------|
|--0-------0--------0-------------------0-------0--------------|
|---------------------------3----------------------------------|  x2


   A / D-D
   D \ A-A  ... repeat to fade


- KJD
- Feb 21st, 2015
Добавлено: 25.08.2015
Другие материалы по этой песне:
  • Аккорды и текст

Страница создана 25.08.2015
http://primanota.ru/ted-nugent/sunrize-chords.htm
Привет, Гость.
Предлагаем пройти революционный курс по гитаре.
Подарок от PrimaNota.Ru, забирай!