PrimaNota.ru - самый крупный в мире бесплатный архив песенных текстов, аккордов, табулатур и нот


Ted Nugent - Dog Eat Dog - аккорды и текст, таба, видео

Регистрация Запомнить меня
Войти через:  Facebook Google Twitter Vk Yandex Mail.ru

Ted Nugent - Dog Eat Dog - аккорды и текст, таба, видео

Печатать
Просмотров: 133
Авторы музыки: Ted Nugent
Авторы текста: Ted Nugent
Dog Eat Dog
Ted Nugent
TED NUGENT - DOG EAT DOG

E|-------------------------------------------------|            
B|-------------------------------------------------|            
G|-------------------------------------------------|          
D|--5h7-7777-7777-7777-7777-7777-7777-7777-7777----|            
A|--0---0000-0000-0000-0000-0000-0000-0000-0000----|          
E|-------------------------------------------------|

E|-------------------------------------------------|            
B|-------------------------------------------------|            
G|----------7----------5----------7--5--2-2--------|          
D|--5h7-777-7--5h7-777-5--5h7-777-7--5--2-2--------|            
A|--0---000----0---000----0---000------------------|          
E|-------------------------------------------------|
  OWW OWW OWW OWWWWWWOOOOO

E|-------------------------------------------------|            
B|-------------------------------------------------|            
G|----------7----------5----------7--5--2-2--------|          
D|--5h7-777-7--5h7-777-5--5h7-777-7--5--2-2--------|            
A|--0---000---0---000----0---000-------------------|          
E|-------------------------------------------------|

E|-------------------------------------------------|            
B|-------------------------------------------------|            
G|----------7----------5----------7--5--2-2--------|          
D|--5h7-777-7--5h7-777-5--5h7-777-7--5--2-2--------|            
A|--0---000----0---000----0---000------------------|          
E|-------------------------------------------------|

E|------------------------------------------------5-5-5--5-5-5--5-5-5---|            
B|------------------------------------------------5-5-5--5-5-5--5-5-5---|            
G|----------7----------5----------7--5--2-2~~-----2-2-2--2-2-2--2-2-2---|          
D|--5h7-777-7--5h7-777-5--5h7-777-7--5--2-2~~-----2-2-2--2-2-2--2-2-2---|            
A|--0---000----0---000----0---000---------------------------------------|          
E|----------------------------------------------------------------------|

E|----------------------------------------------------3-----------|            
B|----------------------------------------------------3-----------|            
G|--2-5--2-5-5--2-5-5--2~------2----2-5--2-5-5--2-----0------2----|          
D|--2-5--2-5-5--2-5-5--2~------2----2-5--2-5-5--2-----0------2----|            
A|------------------------3-4-------------------------2-----------|          
E|-------------------------------------------------3--3--3-4------|
 SABOTAGE ON THE DOWNTOWN           POLICE CARS OVERTURNED
 STREET

E|------------------------------------------------------------------|            
B|--------------------------------------------------8--------8------|            
G|--2-5--2-5-5--2-5-5--2~---5-----3-----------------7--------7------|          
D|--2-5--2-5-5--2-5-5--2~---5--5--3--3--------------6--------6------|            
A|--------------------------3--5--1--3--------------7--------7------|          
E|-----------------------------3-----1--------0-000----0-000--------|
   CAN'T DO   TO BEAT       AND IF YA DON'T
    NOTHING    THE HEAT      YOU'LL GET BURNED

E|----------------------------------------------------3-----------|            
B|----------------------------------------------------3-----------|            
G|--2-5--2-5-5--2-5-5--2~------2----2-5--2-5-5--2-----0------2----|          
D|--2-5--2-5-5--2-5-5--2~------2----2-5--2-5-5--2-----0------2----|            
A|------------------------3-4-------------------------2-----------|          
E|-------------------------------------------------3--3--3-4------|
  SLEEK WOMEN BEHIND EVERY DOOR     COST MORE THAN YOU GOT

E|------------------------------------------------------------------|            
B|--------------------------------------------------8--------8------|            
G|--2-5--2-5-5--2-5-5--2~---5-----3-----------------7--------7------|          
D|--2-5--2-5-5--2-5-5--2~---5--5--3--3--------------6--------6------|            
A|--------------------------3--5--1--3--------------7--------7------|          
E|-----------------------------3-----1--------0-000----0-000--------|
   YOU BEST BE UP IF YOU    CAUSE IF YOU DON'T
   WANT SOME MORE           YOU'LL BE SHOT

E|--------------------------------------------------------------|            
B|--------------------------------------------------------------|            
G|--2--0---5---5---2--------2----2--0---5---5---2---2----2------|          
D|--2--0---5---5---2--------2----2--0---5---5---2---2----2------|            
A|---------------------3-4--------------------------------------|        
E|----------------------------------------------------3b--------|
   DOG DOG DOG EAT DOG           DOG DOG DOG EAT DOG

E|--------------------------------------------------------------------|            
B|---------------------------------------------------8--------8-------|            
G|--2--0---5---5---2----2----5-----3-----------------7--------7-------|          
D|--2--0---5---5---2----2----5--5--3--3--------------6--------6-------|            
A|---------------------------3--5--1--3--------------7--------7-------|        
E|------------------------------3-----1--------0-000----0-000---------|
   DOG DOG DOG EAT DOG

E|----------------------------------------------------3-----------|            
B|----------------------------------------------------3-----------|            
G|--2-5--2-5-5--2-5-5--2~------2----2-5--2-5-5--2-----0------2----|          
D|--2-5--2-5-5--2-5-5--2~------2----2-5--2-5-5--2-----0------2----|            
A|------------------------3-4-------------------------2-----------|          
E|-------------------------------------------------3--3--3-4------|
 KAMAKAZI FROM THE 100TH FLOOR      SWAN DIVE TO THE STREET

E|-------------------------------------------------------------------|            
B|---------------------------------------------------8--------8------|            
G|--2-5--2-5-5--2-5-5--2~----5-----3-----------------7--------7------|          
D|--2-5--2-5-5--2-5-5--2~----5--5--3--3--------------6--------6------|            
A|---------------------------3--5--1--3--------------7--------7------|          
E|------------------------------3-----1--------0-000----0-000--------|
    HE COULDN'T HANDLE THIS   HE CRAVED THAT    YEA, YEAH, YEAH
    MADNESS NO MORE           SWEETER MEAT

E|--------------------------------------------------------------|            
B|--------------------------------------------------------------|            
G|--2--0---5---5---2--------2----2--0---5---5---2---2----2------|          
D|--2--0---5---5---2--------2----2--0---5---5---2---2----2------|            
A|---------------------3-4--------------------------------------|        
E|----------------------------------------------------3b--------|
   DOG DOG DOG EAT DOG           DOG DOG DOG EAT DOG

E|--------------------------------------------------------------------|            
B|---------------------------------------------------8--------8-------|            
G|--2--0---5---5---2----2----5-----3-----------------7--------7-------|          
D|--2--0---5---5---2----2----5--5--3--3--------------6--------6-------|            
A|---------------------------3--5--1--3--------------7--------7-------|        
E|------------------------------3-----1--------0-000----0-000---------|
   DOG DOG DOG EAT DOG

E|-------------------------------------------------------------------------|            
B|--15--13--12--10----15--13--12--10----15--13--12--10----15--13--12--10---|            
G|--14--12--11---9----14--12--11---9----14--12--11---9----14--12--11---9---|          
D|--12--10---9---7----12--10---9---7----12--10---9---7----12--10---9---7---|            
A|-------------------------------------------------------------------------|        
E|-------------------------------------------------------------------------|

E|---------------------------------------5-5-5--5-5-5--5-5-5-------|            
B|--15--13--12--10----15--13-------------5-5-5--5-5-5--5-5-5-------|            
G|--14--12--11---9----14--12--4--3--2----2-2-2--2-2-2--2-2-2-------|          
D|--12--10---9---7----12--10--4--3--2----2-2-2--2-2-2--2-2-2-------|            
A|----------------------------2--1---------------------------------|        
E|-----------------------------------------------------------------|

E|----------------------------------------------------3-----------|            
B|----------------------------------------------------3-----------|            
G|--2-5--2-5-5--2-5-5--2~------2----2-5--2-5-5--2-----0------2----|          
D|--2-5--2-5-5--2-5-5--2~------2----2-5--2-5-5--2-----0------2----|            
A|------------------------3-4-------------------------2-----------|          
E|-------------------------------------------------3--3--3-4------|

E|------------------------------------------------------------------|            
B|--------------------------------------------------8--------8------|            
G|--2-5--2-5-5--2-5-5--2~---5-----3-----------------7--------7------|          
D|--2-5--2-5-5--2-5-5--2~---5--5--3--3--------------6--------6------|            
A|--------------------------3--5--1--3--------------7--------7------|          
E|-----------------------------3-----1--------0-000----0-000--------|

E|--------------------------------------------------------------|            
B|--------------------------------------------------------------|            
G|--2--0---5---5---2--------2----2--0---5---5---2---2----2------|          
D|--2--0---5---5---2--------2----2--0---5---5---2---2----2------|            
A|---------------------3-4--------------------------------------|        
E|----------------------------------------------------3b--------|
   DOG DOG DOG EAT DOG           DOG DOG DOG EAT DOG

E|--------------------------------------------------------------------|            
B|---------------------------------------------------8--------8-------|            
G|--2--0---5---5---2----2----5-----3-----------------7--------7-------|          
D|--2--0---5---5---2----2----5--5--3--3--------------6--------6-------|            
A|---------------------------3--5--1--3--------------7--------7-------|        
E|------------------------------3-----1--------0-000----0-000---------|
   DOG DOG DOG EAT DOG

E|-------------------------------------------------|            
B|-------------------------------------------------|            
G|-------------------------------------------------|          
D|--5h7-7777-7777-7777-7777-7777-7777-7777-7777----|            
A|--0---0000-0000-0000-0000-0000-0000-0000-0000----|          
E|-------------------------------------------------|

E|-------------------------------------------------|            
B|-------------------------------------------------|            
G|----------7----------5----------7--5--2-2--------|          
D|--5h7-777-7--5h7-777-5--5h7-777-7--5--2-2--------|            
A|--0---000----0---000----0---000------------------|          
E|-------------------------------------------------|

E|--------------------------------------------5-5-5--5-5-5--5-5-5--|            
B|--------------------------------------------5-5-5--5-5-5--5-5-5--|            
G|----------7----------5----------7--5--2-2---2-2-2--2-2-2--2-2-2--|          
D|--5h7-777-7--5h7-777-5--5h7-777-7--5--2-2---2-2-2--2-2-2--2-2-2--|            
A|--0---000---0---000----0---000-----------------------------------|          
E|-----------------------------------------------------------------|

E|--------------------------------------------------------------|            
B|--------------------------------------------------------------|            
G|--2--0---5---5---2--------2----2--0---5---5---2---2----2------|          
D|--2--0---5---5---2--------2----2--0---5---5---2---2----2------|            
A|---------------------3-4--------------------------------------|        
E|----------------------------------------------------3b--------|
   DOG DOG DOG EAT DOG           DOG DOG DOG EAT DOG

E|--------------------------------------------------------------|            
B|--------------------------------------------------------------|            
G|--2--0---5---5---2--------2----2--0---5---5---2---2----2------|          
D|--2--0---5---5---2--------2----2--0---5---5---2---2----2------|            
A|---------------------3-4--------------------------------------|        
E|----------------------------------------------------3b--------|
   DOG DOG DOG EAT DOG           DOG DOG DOG EAT DOG

E|--------------------------------------------------------------|            
B|--------------------------------------------------------------|            
G|--2--0---5---5---2--------2----2--0---5---5---2---2----2------|          
D|--2--0---5---5---2--------2----2--0---5---5---2---2----2------|            
A|---------------------3-4--------------------------------------|        
E|----------------------------------------------------3b--------|
   DOG DOG DOG EAT DOG           DOG DOG DOG EAT DOG

Добавлено: 25.08.2015
Другие материалы по этой песне:

Страница создана 29.03.2012
http://primanota.ru/ted-nugent/dog-eat-dog-chords.htm
Привет, Гость.
Предлагаем пройти революционный курс по гитаре.
Подарок от PrimaNota.Ru, забирай!