PrimaNota.ru - самый крупный в мире бесплатный архив песенных текстов, аккордов, табулатур и нот


Tanzwut - Gnade - текст песни, таба, видео

Регистрация Запомнить меня
Войти через:  Facebook Google Twitter Vk Yandex Mail.ru

Tanzwut - Gnade - текст песни, таба, видео

Печатать
Просмотров: 194
          Tanzwut
         - Gnade -
      Ihr wolltet Spass

      tabbed by PelzR


Tuning: Drop A (A E A D F# B)

I decided to tab this tab in it's original tuning which is quite low for a six-string guitar
and more suited for a seven-string guitar. 


Description:
------------
X  -> dead note
.  -> palm mute
() -> let ring


Riffs:
------

Verse
   
B |-----------------|-----------------|
F#|-----------------|-----------------|
D |-----------------|-----------------|
A |-----2---------2-|-----2-------3-0-|
E |-----2---------2-|-----2-------3-0-|
A |-222-2-2-222-2-2-|-222-2-2-222-3-0-|
    ...   . ... .     ...   . ...
    
  
Chorus

B |-----------------|-----------------|-----------------|-----------------|
F#|-----------------|-----------------|-----------------|-----------------|
D |-7-7-7-7-7-7-7-7-|-7-7-7-7-7-7-7-7-|-----------------|-----------------|
A |-7-7-7-7-7-7-7-7-|-7-7-7-7-7-7-7-7-|-8-8-8-8-8-8-8-8-|-5-5-5-5-5-5-5-5-|
E |-5-5-5-5-5-5-5-5-|-5-5-5-5-5-5-5-5-|-8-8-8-8-8-8-8-8-|-5-5-5-5-5-5-5-5-|
A |-----------------|-----------------|-8-8-8-8-8-8-8-8-|-5-5-5-5-5-5-5-5-|
    

Interlude

B |-----------------|-----------------|-----------------|-----------------|
F#|-6-6-6-6-6-6-6-6-|-6-6-6-6-9-9-8-8-|-----------------|-----------------|
D |-X-X-X-X-X-X-X-X-|-X-X-X-X-X-X-X-X-|-6-6-6-6-6-6-6-6-|-6-6-6-6-8-8-5-5-|
A |-3-3-3-3-3-3-3-3-|-3-3-3-3-6-6-5-5-|-X-X-X-X-X-X-X-X-|-X-X-X-X-X-X-X-X-|
E |-----------------|-----------------|-4-4-4-4-4-4-4-4-|-4-4-4-4-6-6-3-3-|
A |-----------------|-----------------|-----------------|-----------------|

B |-----------------|-----------------|-----------------|-----------------|
F#|-----------------|---------9-9-8-8-|-8-8-8-8-8-8-8-8-|-8-8-8-8-8-8-8-8-|
D |-3-3-3-3-3-3-3-3-|-3-3-3-3-X-X-X-X-|-X-X-X-X-X-X-X-X-|-X-X-X-X-X-X-X-X-|
A |-X-X-X-X-X-X-X-X-|-X-X-X-X-6-6-5-5-|-5-5-5-5-5-5-5-5-|-5-5-5-5-5-5-5-5-|
E |-1-1-1-1-1-1-1-1-|-1-1-1-1---------|-----------------|-----------------|
A |-----------------|-----------------|-----------------|-----------------|


Outro

    W
B |---|
F#|---| let ring
D |-7-| until the
A |-7-| sound is
E |-5-| faded out
A |---|
    

Bagpipe Intro
   
B |-----------17--17-|-19--17--15-|-17--19-20--22-|-20--19--17-|
F#|-15--15-15--------|------------|---------------|------------|
D |------------------|------------|---------------|------------|
A |------------------|------------|---------------|------------|
E |------------------|------------|---------------|------------|
A |------------------|------------|---------------|------------|
   
B |-17--17-17-18--17-|-15---------|-15--17-18-17--15-|------------|----|
F#|------------------|-----18--15-|------------------|-18--17--15-|-17-|
D |------------------|------------|------------------|------------|----|
A |------------------|------------|------------------|------------|----|
E |------------------|------------|------------------|------------|----|
A |------------------|------------|------------------|------------|----|


Bagpipe Chorus
   
B |-----17-|-(17)---------15-|-17--15--------|---------------|
F#|-15-----|--------17-18----|--------18--15-|-17--18-17-----|
D |--------|-----------------|---------------|------------17-|
A |--------|-----------------|---------------|---------------|
E |--------|-----------------|---------------|---------------|
A |--------|-----------------|---------------|---------------|

The Bagpipe in the outro is based on the chorus part.


Song Structure:
---------------
Intro
Verse      4x
Break
Verse      4x
Chorus     4x
Break     
Verse      4x
Chorus     4x
Interlude  2x
Chorus     4x
Outro
Добавлено: 15.11.2013
Другие материалы по этой песне:
  • Аккорды и текст

Страница создана 15.11.2013
http://primanota.ru/tanzwut/gnade-chords.htm
Привет, Гость.
Предлагаем пройти революционный курс по гитаре.
Подарок от PrimaNota.Ru, забирай!