PrimaNota.ru - самый крупный в мире бесплатный архив песенных текстов, аккордов, табулатур и нот


Tanzwut - Komm Her - текст песни, таба, видео

Регистрация Запомнить меня
Войти через:  Facebook Google Twitter Vk Yandex Mail.ru

Tanzwut - Komm Her - текст песни, таба, видео

Печатать
Просмотров: 121
          Tanzwut
       - Komm Her -
          Tanzwut

      tabbed by PelzR


Tuning: Standard E (E A D G B E)

The last song from their debut album "Tanzwut". As a guitar player their is not 
much to do, only three riffs.


Description:
------------
.  -> palm mute
h  -> hammer-on
() -> let ring


Riffs:
------

Main Riff 
                                    
E|---------------|
B|---------------|
G|---------------|
D|-2-2-22-22-0---|
A|-0-0-00-00---3-|
E|---------------|
    

Verse/Bridge

E|------------------|
B|------------------| 
G|------------------|
D|------------------|
A|-0-0-00-00-0-00-0-|
E|------------------|
   . . .. .. . .. .  
   

Outro

E|-------|---|
B|-------|---|
G|-2---7-|-5-|
D|-2---7-|-5-|
A|-0---5-|-3-|
E|-------|---|


Flute

E|------------------------|---------------------|
B|-10--13-13-12h13-12--10-|-(10)-13-13-12h13-12-|
G|------------------------|---------------------|
D|------------------------|---------------------|
A|------------------------|---------------------|
E|------------------------|---------------------|


Song Structure:
---------------
Intro
Main Riff  8x (at 0:36)
Break    
Verse     10x (at 1:12)
Break   
Main Riff  8x (at 1:50)  
Bridge     2x 
Break      
Main Riff  8x (at 3:21)
Bridge     2x
Break
Outro      8x (at 4:27)
Break
Outro      5x (at 5:36)
Добавлено: 14.08.2013
Другие материалы по этой песне:
  • Аккорды и текст

Страница создана 14.08.2013
http://primanota.ru/tanzwut/komm-her-chords.htm
Привет, Гость.
Предлагаем пройти революционный курс по гитаре.
Подарок от PrimaNota.Ru, забирай!