PrimaNota.ru - самый крупный в мире бесплатный архив песенных текстов, аккордов, табулатур и нот


Tally Hall - A Lady - таба, видео

Регистрация Запомнить меня
Войти через:  Facebook Google Twitter Vk Yandex Mail.ru

Tally Hall - A Lady - таба, видео

Печатать
Просмотров: 171
Авторы: Joe Hawley

-------------------------------------------------------------------------------
                             A LADY - Tally Hall
-------------------------------------------------------------------------------
Tabbed by: Trptsklz
E-mail: odene@southwestern.edu

Tuning:EADGBe


INTRO:

(*2)

Gtr. 1

e|----------7---------------7----------------------------------------------------------|
B|-------7----9----------7-----9p7h9---------------------------------------------------|
G|----7-------9-------7--------9-------------------------------------------------------|
D|--9--------------9-------------------------------------------------------------------|
A|-------------------------------------------------------------------------------------|
E|-------------------------------------------------------------------------------------|

Gtr. 2
e|-------------------------------------------------------------------------------------|
B|--------------------9\s---------------------------9\s--------------------------------|
G|-------7------------9\s-------------7-------------9\s--------------------------------|
D|-------9---------9------------------9----------9-------------------------------------|
A|----9-----9---7-----------------9-------9---7----------------------------------------|
E|--7--------------------------7-------------------------------------------------------|


Opening melody (Guitar 2 arpeggiates above chords)

       Bm          E       Bm       E       G          C
e|-----10---9---7------7-------------------------------------------------------------|
B|-----------------9-------7---10---9----------------7-------------------------------|
G|-------------------------------------9----7-----9-----9---7------------------------|
D|--------------------------------------------------------------10-------------------|
A|-----------------------------------------------------------------------------------|
E|-----------------------------------------------------------------------------------|
       F#                                Bm             E
e|------------------------7-----10--9----7-------7-------------------------------------|
B|------------7-----7-------------------------7-----7---10---9----7--------------------|
G|---------7-----9------9---------------------------------------------9----------------|
D|--7---8------------------------------------------------------------------------------|
A|-------------------------------------------------------------------------------------|
E|-------------------------------------------------------------------------------------|
   Bm             E               G          A                  B
e|--------------------------------7---9--10--9---10p9---7---5---7p5h7--|
B|---------7---------7---9---10----------------------------------------|
G|--7---9-----7---9----------------------------------------------------|
D|---------------------------------------------------------------------|
A|---------------------------------------------------------------------|
E|---------------------------------------------------------------------|

Bm       E     Bm     E
I know a lady, good & evil
G              C       F#
Showed me that I was a gentleman
Bm           E       Bm      E
Wait for the girl to blossom into
G           A              B
Colors that grow where you can
Добавлено: 14.09.2013
Другие материалы по этой песне:
  • Аккорды и текст

Страница создана 14.09.2013
http://primanota.ru/tally-hall/a-lady-chords.htm
Привет, Гость.
Предлагаем пройти революционный курс по гитаре.
Подарок от PrimaNota.Ru, забирай!