PrimaNota.ru - самый крупный в мире бесплатный архив песенных текстов, аккордов, табулатур и нот


Symphony X - Accolade - аккорды и текст, таба, бас-таба, видео

Регистрация Запомнить меня
Войти через:  Facebook Google Twitter Vk Yandex Mail.ru

Symphony X - Accolade - аккорды и текст, таба, бас-таба, видео

Печатать
Просмотров: 199
Авторы музыки: Michael Pinnella, Michael Romeo, Thomas Miller
Авторы текста: Russell Allen
Accolade
Symphony X
				The Accolade
 
 
Transcribed and Tabbed by Noghy

Noghy@caramail.com
Sea of Lies:

 
intro:
 
E----------0----------------0-----------------0-----------------0---------|
B--------0---0------------0---0-------------0---0-------------0---0-------|
G------6-------6---6----6-------6---6-----6-------6---6-----6-------6---6-|
D----4-----------4----4-----------4-----4-----------4-----4-----------4---|
A-------------------------------------------------------------------------|
E-2------------------2----------------2-----------------2-----------------|

E----------0----------------0-----------------0-----------------0---------|
B--------0---0------------0---0-------------0---0-------------0---0-------|
G------6-------6---6----6-------6---6-----6-------6---6-----6-------6---6-|
D----4-----------4----4-----------4-----4-----------4-----4-----------4---|
A-------------------------------------------------------------------------|
E-2-----------------2-----------------2-----------------2-----------------|

E----------0----------------0-----------------0-----------------0---------|
B--------0---0------------0---0-------------0---0-------------0---0-------|
G------6-------6---6----6-------6---6-----6-------6---6-----6-------6---6-|
D----4-----------4----4-----------4-----4-----------4-----4-----------4---|
A-------------------------------------------------------------------------|
E-2------------------2----------------2-----------------2-----------------|
 
E---------0----------------0-----------------0-----------------0---------|
B-------0---0------------0---0-------------0---0-------------0---0-------|
G-----6-------6---6----6-------6---6-----6-------6---6-----6-------6---6-|
D---4-----------4----4-----------4-----4-----------4-----4-----------4---|
A-0----------------0-----------------------------------------------------|
E------------------------------------2-----------------2-----------------|

E---------0----------------0-----------------0-----------------0---------|
B-------0---0------------0---0-------------0---0-------------0---0-------|
G-----6-------6---6----6-------6---6-----6-------6---6-----6-------6---6-|
D---4-----------4----4-----------4-----4-----------4-----4-----------4---|
A------------------------------------0-----------------0-----------------|
E-2-----------------2----------------------------------------------------|

E----------0----------------0-----------------0-----------------0---------|
B--------0---0------------0---0-------------0---0-------------0---0-------|
G------6-------6---6----6-------6---6-----6-------6---6-----6-------6---6-|
D----4-----------4----4-----------4-----4-----------4-----4-----------4---|
A-------------------------------------------------------------------------|
E-2------------------2----------------2-----------------2-----------------|
 
E---------0-----------------0---------|
B-------0---0-------------0---0-------|
G-----6-------6---6-----6-------6---6-|
D---4-----------4-----4-----------4---|
A-0-----------------0-----------------|
E-------------------------------------|

E-------4-----------4-----------6-----------4-----------0-----------0---|
B-----4---4-------4---4-------7---7-------5---5-------0---0-------0---0-|
G---4-------4---4-------4---6-------6---4-------4---8-------8---8-------|
D-6-----------6-----------8-----------6-----------9-----------9---------|
A-----------------------------------------------------------------------|
E-----------------------------------------------------------------------|

E-------0-----------0-----------0-----|
B-----0---0-------0---0-------0---0---|
G---8-------8---8-------8---6-------6-|
D-7-----------7-----------7-----------|
A-------------------------------------|
E-------------------------------------|

E-------4-----------4-----------6-----------4-----------0-----------0---|
B-----4---4-------4---4-------7---7-------5---5-------0---0-------0---0-|
G---4-------4---4-------4---6-------6---4-------4---8-------8---8-------|
D-6-----------6-----------8-----------6-----------9-----------9---------|
A-----------------------------------------------------------------------|
E-----------------------------------------------------------------------|

E-------0-----------0-----0--|
B-----0---0-------0---0---0--|
G---8-------8---8-------8-6--|
D-7-----------7-----------7--|
A-------------------------0--|
E----------------------------|
 
intro solo :
E------------------------------------------------------18h20h23p20h23p20-19-|
B---------------------------------------------------------------------------|
G------------------------------15h17----------15h17h20----------------------|
D-15---13--15--10--------13h15----------------------------------------------|
A------------------13h15-------------15h18h22-------------------------------|
E---------------------------------------------------------------------------|

E-18-19-16-16-18----14-13-12-11-------------------------|
B----------------19-------------------------------------|
G-------------------------------------------------------|
D-------------------------------16-14-13----------------|
A----------------------------------------14-13-11--9h11-|
E-------------------------------------------------------|

E--------------7----------16h19h24p19h24p19p16---------------|
B------------9---9---9-12----------------------17------------|
G--------8-9-------9------------------------------16---------|
D------9---------------------------------------------18------|
A-7-11--------------------------------------------------19---|
E------------------------------------------------------------|

E-------------------------------------|
B--11-9-9-7-7-9-5-4-2--1-2------------|
G---------------------------3--1h3----|
D----------------------------------4--|
A-------------------------------------|
E-------------------------------------|

E--------------------------------------------------------------|
B--------------------------------------------------------------|
G--------------------------------------------------------------|
D------------------------------------------1-3-4-3-1-----------|
A-4-4--4-4-4--4--4-4--4-4-4-4--3-4-3-1-3-4-----------4-3-1-3-4-|
E-2-2--2-2-2--2--2-2--2-2-2-2----------------------------------|

E--------------------------------------------------------------|
B--------------------------------------------------------------|
G--------------------------------------------------------------|
D------------------------------------------1-3-4-3-1-----------|
A-4-4--4-4-4--4--4-4--4-4-4-4--3-4-3-1-3-4-----------4-3-1-----|
E-2-2--2-2-2--2--2-2--2-2-2-2------------------------------4-2-|

E---------------------------------------------|
B---------------------------------------------|
G---------------------------------------------|
D---------------------------------------------|
A-6-6-6--6-6-6--6-6-6--6-6-6--6--6--6--6--6-6-|
E-4-4-4--4-4-4--4-4-4--4-4-4--4--4--4--4--4-4-|

E----------------------------------------------------------|
B----------------------------------------------------------|
G----------------------------------------------------------|
D----------------------------------------------------------|
A------------------------------------------------------7ah-|
E-0-0--0-0-0--0-0-0--0-0-0--0-0-0--0-0-0--0-0-0--0-0-0-----|

E----------------------------------------|
B----------------------------------------|
G----------------------------------------|
D-----------------------------2--4--5--7-|
A-----------------------------0--2--3--5-|
E-0-0--0-0-0--0-0-0--0-0-0--0------------|

verse :
E--------------------------------------------------|
B--------------------------------------------------|
G--------------------------------------------------|
D-8--------------4--6--8----------------------6--8-|
A-6-6-6-6-(sim)--2--4--6-6-6-6-(sim)-6--8--9--4--6-|
E------------------------------------4--6--7-------|

E--------------------------------------------|
B--------------------------------------------|
G--------------------------------------------|
D-8--------------4--6--8---------------------|
A-6-6-6-6-(sim)--2--4--6-6-6-6-(sim)-6--8--9-|
E------------------------------------4--6--7-|

E-----------------------------------|
B-----------------------------------|
G-----------------------------------|
D-6---2--4-------6---2---4------6---|
A-4---0--2---6---4---0---2--6---4---|
E------------4--------------4-------|

pre-chorus :
E-----------------------------------------------------------------------------|
B-----------------------------------------------------------------------------|
G-----------------------------------------------------------------------------|
D-----------------------------------------------------------------------------|
A-3-3-3-3--3--3-3--3-3-3-3--3--3-3--3-3--3-3-3-3--3--3-3--3-3-3-3--3--3-3--3-3|
E-1-1-1-1--1--1-1--1-1-1-1--1--1-1--1-1--1-1-1-1--1--1-1--1-1-1-1--1--1-1--1-1|

E-----------------------------------------------------------------------------|
B-----------------------------------------------------------------------------|
G-----------------------------------------------------------------------------|
D-----------------------------------------------------------------------------|
A-3-3-3-3--3--3-3--3-3-3-3--3--3-3--3-3--3-3-3-3--3--3-3--3-3-3-3--3--3-3--3-3|
E-1-1-1-1--1--1-1--1-1-1-1--1--1-1--1-1--1-1-1-1--1--1-1--1-1-1-1--1--1-1--1-1|

E-------------------|
B-------------------|
G-------------------|
D-6-----6-----------|
A-4-----4-----------|
E-------------------|

E-----------------------------------------------------------------------------|
B-----------------------------------------------------------------------------|
G-----------------------------------------------------------------------------|
D-----------------------------------------------------------------------------|
A-3-3-3-3--3--3-3--3-3-3-3--3--3-3--3-3-3-3--3--3-3--3-3-3-3--3--3-3--3-3--3-3|
E-1-1-1-1--1--1-1--1-1-1-1--1--1-1--1-1-1-1--1--1-1--1-1-1-1--1--1-1--1-1--1-1|

E-------------------|
B-------------------|
G-------------------|
D-6-----6-----------|
A-4-----4-----------|
E-------------------|

E-----------------------------------------------------------------------------|
B-----------------------------------------------------------------------------|
G-----------------------------------------------------------------------------|
D-----------------------------------------------------------------------------|
A-3-3-3-3--3--3-3--3-3-3-3--3--3-3--3-3-3-3--3--3-3--3-3-3-3--3--3-3--3-3--3-3|
E-1-1-1-1--1--1-1--1-1-1-1--1--1-1--1-1-1-1--1--1-1--1-1-1-1--1--1-1--1-1--1-1|

E--------------------------|
B--------------------------|
G-------------3-1-0--------|
D---------1-3-------3-1----|
A-----1-3---------------3--|
E-1-4----------------------|

Solo fills during pre-chorus :
E----------------15b-15-13-15---------|
B-16b---16br-13---------------13--14~-|
G-------------------------------------|
D-------------------------------------|
A-------------------------------------|
E-------------------------------------|
 
E-18b--23--18--16h18p16-15-----------------------|
B-------T------------------16--------------------|
G-----------------------------15-----------------|
D--------------------------------18-17-18-17-15--|
A------------------------------------------------|
E------------------------------------------------|

Chorus :
E-------------------------------------------------------------|
B-------------------------------------------------------------|
G-------------------2-2--2----2-2--2-2-2----------------4---2-|
D-6----4---2---4----2-2--2----2-2--2-2-2---6----4---2---4---2-|
A-6----4---2---2----0-0--0--0-0-0--0-0-0---6----4---2---2---0-|
E-4----2---0-------------------------------4----2---0---------|

verse 2:
(x 6)
E-------------------------------|
B----------4-----------5-7-4----|
G-----6------4-------6-------4--|
D---6---6------4---6------------|
A-4--------------4--------------|
E-------------------------------|

( x 4 )
E-----------------------------|
B---------1-----------2-4-1---|
G-----3-----1-------3-------4-|
D---3---3-----1---3-----------|
A-1-------------1-------------|
E-----------------------------|

Rhythm during keyboard solo: 
E--------------------|
B--------------------|
G--------------------|
D--------------------|
A-4-4--2--4--4--2-4--|
E-2-2--0--2--2--0-2--|

Rhythm during guitar solo :
E-------------------|
B-------------------|
G-------------------|
D-------------------|
A-8-8--6--8--8--6-8-|
E-6-6--4--6--6--4-6-|

Solo 1 :
E------------------------------------------------------18--16-|
B-13b-13-14-13-11-13-14p13--------------------13----16--------|
G-------------------------------------------------------------|
D--------------------------15--13----------15----18-----------|
A---------------------------------16-15-13--------------------|
E-------------------------------------------------------------|

E----------16-14--13----14-13--11p9h11-13p11p9-----------------|
B-------14-----------11------------------------11p9h11-13p11p9-|
G----15--------------------------------------------------------|
D-16-----------------------------------------------------------|
A--------------------------------------------------------------|
E--------------------------------------------------------------|

E---------------------------------------------------------|
B---------------------------------------------------------|
G-11p10h11-13p10------------------------------------------|
D----------------11p10h11-13p11p10------------------------|
A----------------------------------13-11-8-11-8-9-11-9-11-|
E---------------------------------------------------------|

 Solo 2 :
E-16br-13-16b-vib--18-20-21-20-18h20p18----------------------------|
B---------------------------------------21-18-20-18h20p18-17-18-20-|
G------------------------------------------------------------------|
D------------------------------------------------------------------|
A------------------------------------------------------------------|
E------------------------------------------------------------------|

E-----------------------------------------------23p20-------------|
B-17h18h21-17h18h20-18-17-18p17p14--16-14--9-sl-------21----------|
G--------------------------------------------------------20-------|
D-----------------------------------------------------------22----|
A--------------------------------------------------------------23-|
E-----------------------------------------------------------------|

E----------------16h21p16-19-16-13-16p13-------------------------------|
B-------------18-------------------------14----------------------------|
G----------18-------------------------------13----------------13h15h18-|
D-------18-------------------------------------15----------------------|
A-16h20-------------------------------------------16-13h16h20----------|
E----------------------------------------------------------------------|

E----------------------------------13h16h18p16p13----------|
B----------------------------------------------------------|
G-p15p13-------------------13h15h18---------------18p15p13-|
D----------------------------------------------------------|
A--------20p16p13-13h16h20---------------------------------|
E----------------------------------------------------------|

E----------------------------13h16h18p16h18p16p13----------------|
B----------------------------------------------------------------|
G-------------------13h15h18----------------------18p15h18p15----|
D----------------------------------------------------------------|
A-20p16p13-13h16h20----------------------------------------------|
E----------------------------------------------------------------|

Rhythm over violin :
E---------------------------------------|
B---------------------------------------|
G---------------------------------------|
D-3-3-3-3--3--3-3--3-3-3-3--3--3-3--3-3-|
A-1-1-1-1--1--1-1--1-1-1-1--1--1-1--1-1-|
E---------------------------------------|

verse 3 :
E-----------------------------------------------|
B-----------------------------------------------|
G-----------------------------------------------|
D-8--------------4--6--8----------------------6-|
A-6-6-6-6-(sim)--2--4--6-6-6-6-(sim)-6--8--9--4-|
E------------------------------------4--6--7----|

Pre-chorus :
E-------------------------|
B-------------------------|
G-------------------------|
D-------------------------|
A-8~--------------------6-|
E--------------6--7--8----|

CHORUS
Then one step higher :
E-------------------------------------|
B-------------------------------------|
G-------------6---4-4--4----4-4--4-4--|
D-8---6---4---6---4-4--4----4-4--4-4--|
A-8---6---4---4---2-2--2--2-2-2--2-2--|
E-6---4---2---------------------------|

E------------------------------------------------------|
B------------------------------------------------------|
G-------------6---4--4--4---6--6--6---7--7---9--9------|
D-8---6---4---6---4--4--4---6--6--6---7--7---9--9---7--|
A-8---6---4---4---2--2--2---4--4--4---5--5---7--7---7--|
E-6---4---2-----------------------------------------5--|

Russell Choirs :
E---------------------------------------------------------------|
B-----------------------------------------10-8--------------10--|
G----9--7-----------------------4--------------10-9-5-7---------|
D-7-------10-9--5-7--5---5----5---5-7---7----------------10-----|
A----------------------7---5------------------------------------|
E---------------------------------------------------------------|

E---------------------------------------------------------------|
B-----10--10-8-----------10----8----10-------10-8-----8-6-----9~|
G--------------10-9-5-7-----9----7-----10---------8-------6-----|
D--10-------------------------------------10--------8-------6---|
A---------------------------------------------------------------|
E---------------------------------------------------------------|

E--------------------------------|
B-7-9~---7------8-7-8--10-12~----|
G----------8-9-------------------|
D--------------------------------|
A--------------------------------|
E--------------------------------|

classical guitar :
E--------------------------------------8-10----------------|
B-5---8---7------5------5-----8-10---8------8h10p8-7-------|
G-------------7-------7-----7------9-----------------9p7-9-|
D-------------------7-----9--------------------------------|
A----------------------------------------------------------|
E----------------------------------------------------------|

E-----------------------------|
B-----------------------------|
G-----------------------------|
D-7---9-----------------------|
A-5---7-----5---7-----8---10--|
E-----------3---5-----6---8---|

Pre-chorus :
E-----------------------------------------------------------------------------|
B-----------------------------------------------------------------------------|
G-----------------------------------------------------------------------------|
D-----------------------------------------------------------------------------|
A-4-4-4-4--4--4-4--4-4-4-4--4--4-4--4-4--4-4-4-4--4--4-4--4-4-4-4--4--4-4--4-4|
E-----------------------------------------------------------------------------|

E------------------|
B------------------|
G------------------|
D-3-------3--------|
A-3-------3--------|
E-1-------1--------|

E-----------------------------------------------------------------------------|
B-----------------------------------------------------------------------------|
G-----------------------------------------------------------------------------|
D-----------------------------------------------------------------------------|
A-4-4-4-4--4--4-4--4-4-4-4--4--4-4--4-4--4-4-4-4--4--4-4--4-4-4-4--4--4-4--4-4|
E-----------------------------------------------------------------------------|

E--------------------------------------|
B--------------------------------------|
G--------------------------3-1-0-------|
D-3-------3------------1-3-------3-1---|
A-3-------3--------1-3---------------3-|
E-1-------1----1-4---------------------|

Chorus
Chorus one step higher :
E-------------------------------------|
B-------------------------------------|
G-------------6---4-4--4----4-4--4-4--|
D-8---6---4---6---4-4--4----4-4--4-4--|
A-8---6---4---4---2-2--2--2-2-2--2-2--|
E-6---4---2---------------------------|

E--------------------------|
B--------------------------|
G-------------6---4--4--4--|
D-8---6---4---6---4--4--4--|
A-8---6---4---4---2--2--2--|
E-6---4---2----------------|

Outro :
E------0----------0------------0----------0------------0----------0-------|
B-----------10------10--------------10------10--------------10------10----|
G---11---11----11------11---11---11----11------11---11---11----11------11-|
D-9-----------------------9-----------------------9-----------------------|
A-------------------------------------------------------------------------|
E-------------------------------------------------------------------------|
Добавлено: 05.08.2013
Другие материалы по этой песне:

Страница создана 01.03.2012
http://primanota.ru/symphony-x/accolade-chords.htm
Привет, Гость.
Предлагаем пройти революционный курс по гитаре.
Подарок от PrimaNota.Ru, забирай!