PrimaNota.ru - самый крупный в мире бесплатный архив песенных текстов, аккордов, табулатур и нот


Symphony X - Accolade Ii - текст песни, таба, видео

Регистрация Запомнить меня
Войти через:  Facebook Google Twitter Vk Yandex Mail.ru

Symphony X - Accolade Ii - текст песни, таба, видео

Печатать
Просмотров: 172
Авторы музыки: Michael LePond, Michael Pinnella, Michael Romeo
Авторы текста: Russell Allen
 Symphony X
Accolade II

Tuned to D

Intro
-------------------------------------------------------------|
-------------------------------------------------------------|
-------------------------------------------------------------|
-4----------2---4--------------4-4--------4------------------|
-4----2--4------4----2-4-------4-4--------4---2-4------------|
-2--------------2--------0-----2-2-slide--2-------0----------|

Rythm 1                           1.            2.
--------------------------------- ------------- -------------|
--------------x------------------ ------------- -------------|
--------------------------------- ------------- -------------|
-4---------4-----------4-------4- ------------- -------------|
-4---------4-----------4-------4- -2---4------- -2-2-4-4-----|
-2-----2-2-2----5-0----2---2-2-2- ---------0--- ---------0-0-|

Riff 1                    Rythm 2
------------x2----------- -----------------------------------|
------------------------- -----------------------------------|
-5----6------7----6------ -----------------------------------|
-3----6------8----6---4-- -----------------------------------|
------4------5----4---4-- --------2---------2---------2------|
----------------------2-- -4----4---2-4---4---2-4---4---2-4--|


--------------------------------------------------------------|
--------------------------------------------------------------|
--------------------------------------------------------------|
--------------------------------------------------------------|
---2------------------2-----------2-----------2-----------2---|
-4---2-4-2-4-2-4----4---2-4-----4---2-4-----4---2--4----4---2-|

         Riff 2
-------- ----------------------------------------------------|
-------- ----------------------------------------------------|
-------- ------------------------------------6---------------|
-------- -2----4-----2---4-----5---7----5----6-----bass------|
-------- -2----4-----2---4-----5---7----5----4-----solo------|
-4-2-4-2 -0----2-----0---2-----3---5----3--------------------|

Riff 3
-------------------------------------------------------------|
----------------7-------5------------------------------------|
-----------9--9----7--7--------------------------------------|
--4--------9-------7-------7-------------------into riff-----|
--4--------7-------5-------7---------------------------------|
--2--------7-------5-------5----5-5-5-5-5-5------------------|
Добавлено: 31.05.2012
Другие материалы по этой песне:

Страница создана 14.03.2012
http://primanota.ru/symphony-x/accolade-ii-chords.htm
Привет, Гость.
Предлагаем пройти революционный курс по гитаре.
Подарок от PrimaNota.Ru, забирай!