PrimaNota.ru - самый крупный в мире бесплатный архив песенных текстов, аккордов, табулатур и нот


Sylosis - From The Edge Of The Earth - таба, видео

Регистрация Запомнить меня
Войти через:  Facebook Google Twitter Vk Yandex Mail.ru

Sylosis - From The Edge Of The Earth - таба, видео

Печатать
Просмотров: 116
Artist: Sylosis
Album: The Edge Of The Earth (2011)
Song: From The Edge Of The Earth
Tabbed by: http://www.youtube.com/user/danobrien2468 

Tuning: Standard (EADGBe)

Got asked to tab this amazing solo out :D

e|----------------------------------------------------------------------|
B|----------------------------------------------------------------------|
G|-/12-b13r12-----------------------------------------------------------|
D|------------12----------12-------------------8-10-8-(10)/12-10p8h10---|
A|---------------14-12-10----10-9b10r9------10--------------------------|
E|-------------------------------------8-11-----------------------------|
Pm                                     .  . .

e|--------------------------18----13-15------|
B|-<7>------15b17r-13-15-16----16------------|
G|-----<5>-----------------------------------|
D|-------------------------------------------|
A|-------------------------------------------|
E|-------------------------------------------|

e|-15-14----------------------------------------------------------------------------------------|
B|-------15-------------------------------------------------------------------------------------|
G|----------14-12-11-12-11--------------------------------------------------7-8-10-8-7----------|
D|-------------------------12----------12---------7-8-10-8-7---------7-8-10------------10-8-10--|
A|----------------------------14-12-10-----6-8-10------------10-8-10----------------------------|
E|----------------------------------------------------------------------------------------------|

e|--------------------------------------------------------------------------|
B|--------8-10-11-10-8-------12-15-13-12------------------------------------|
G|-7-8-10--------------10---x------------12----12h14--------10-9------12----|
D|-------------------------x----------------12-----------10------10-9-------|
A|----------------------------------------------------12--------------------|
E|--------------------------------------------------------------------------|

e|------------------15~~~~-------------------------------------------|
B|-15b17r15-13-15brb~~~~~~-r13-12-15-13-15---------------------------|
G|--------------------------------14-12-14-------10-9-------/12------|
D|--------------------------------------------10------10-------------|
A|-----------------------------------------12------------10----------|
E|-------------------------------------------------------------------|

e|-----------------------------------------------------------------------------|
B|-----------------------------------------------------------------------------|
G|-------------------------------------------------------12-14-16-12-14-16-----|
D|-------------------------------------12-14-16-12-14-16-----------------------|
A|-------------------10-12-14-10-12-14-----------------------------------------|
E|-10-12-14-10-12-14-----------------------------------------------------------|

e|-------------13h17t22p17p13----------------------13h17t22-----|
B|----------15----------------15----------------15--------------|
G|-------14----------------------14----------14-----------------|
D|----15----------------------------15----15--------------------|
A|-17----------------------------------17-----------------------|
E|--------------------------------------------------------------|

:)
Добавлено: 31.05.2012
Другие материалы по этой песне:

Страница создана 31.05.2012
http://primanota.ru/sylosis/from-the-edge-of-the-earth-chords.htm
Привет, Гость.
Предлагаем пройти революционный курс по гитаре.
Подарок от PrimaNota.Ru, забирай!