PrimaNota.ru - самый крупный в мире бесплатный архив песенных текстов, аккордов, табулатур и нот


Survivor - Didn't Know It Was Love - текст песни, бас-таба, видео

Регистрация Запомнить меня
Войти через:  Facebook Google Twitter Vk Yandex Mail.ru

Survivor - Didn't Know It Was Love - текст песни, бас-таба, видео

Печатать
Просмотров: 39
Авторы: Frankie Sullivan, Jim Peterik

-----------------------------------------------------------------
 SURVIVOR - Didn't Know It Was Love 
-----------------------------------------------------------------
 Tabbed By : miguelon76
 e-mail: mithrandir_nbr@hotmail.com
 Tuning: standard G D A E
 Watch me playing this tab: https://youtu.be/dDMA_FdvTBc (I'm a beginner, don't be cruel :)

NOTE: In some parts the division in bars is not accurate, play by ear there.

It felt so easy in the morning sun
When love was in season, I was on the run

  I was looking for...
G|----------|-------|---------------|--------------|-----------|-----------|
D|----------|-------|---------------|--------------|-----------|-----------|
A|----------|-------|---------------|--------------|-----------|-----------|
E|0-2-3-----|5------|0-2-3-----2----|0-----2-----3-|-2--5------|0-5(5)-----|

[VERSE]
  /One touch should've told me...                x2 \
G||---------------|---------------||---------------||
D||---------------|---------------||---------------|| x2
A||5-5-5-5-5-5-5-5|---------------||---------------||
E||---------------|3-3-3-3-3-3-3-3||5-5-5-5-5-5-5-5||
  \                                                 /
  With a roll of the dice...
G|---------------|---------------|---------------|---------------|
D|---------------|---------------|---------------|---------------|
A|---------------|---------------|---------------|---------------|
E|0-2-3-3-3-3-3-3|3-3-3-3-3-3-3-3|5-5-5-5-5-5-5-5|5-5-5-5-5-5-0-2|

G|----------|----------|-------------|-----------|
D|----------|----------|-------------|-----------|
A|----------|----------|-------------|-----------|
E|3----2----|0----2----|3--2--5-5-5-5|5-5-0-5----|

[CHORUS]
  /Didn't know it was love...                    x2 \
G||---------------|---------------||---------------||
D||---------------|---------------||---------------|| x2
A||5-5-5-5-5-5-5-5|---------------||---------------||
E||---------------|3-3-3-3-3-3-3-3||5-5-5-5-5-5-5-5||
  \                                                 /

Was I too blind...
G|---------------|---------------|---------------|---------------|
D|---------------|---------------|---------------|---------------|
A|2-2-2-2-2-2-2-2|---------------|--------------4|5-5-5-5-5-5-5-5|
E|---------------|3-3-3-3-3-3-3-3|5-5-5-5-5-5-5--|---------------|

         Didn't know it was...    love
G|---------------|---------------|-------|---------|
D|---------------|---------------|-------|---------|
A|---------------|---------------|5------|(5)------|
E|3-3-3-3-3-3-3-3|5-5-5-5-5-5-5-5|-------|---------|

[VERSE]
  /Wasn't blind to the magic...                  x2 \
G||---------------|---------------||---------------||
D||---------------|---------------||---------------|| x2
A||5-5-5-5-5-5-5-5|---------------||---------------||
E||---------------|3-3-3-3-3-3-3-3||5-5-5-5-5-5-5-5||
  \                                                 /

  I keep trying to shake you...
G|---------------|---------------|---------------|---------------|
D|---------------|---------------|---------------|---------------|
A|---------------|---------------|---------------|---------------|
E|0-2-3-3-3-3-3-3|3-3-3-3-3-3-3-3|5-5-5-5-5-5-5-5|5-5-5-5-5-5-0-2|

G|----------|----------|-------------|-----------|
D|----------|----------|-------------|-----------|
A|----------|----------|-------------|-----------|
E|3----2----|0----2----|3--2--5-5-5-5|5-5-0-5----|

[CHORUS]
  /Didn't know it was love...                    x2 \
G||---------------|---------------||---------------||
D||---------------|---------------||---------------|| x2
A||5-5-5-5-5-5-5-5|---------------||---------------||
E||---------------|3-3-3-3-3-3-3-3||5-5-5-5-5-5-5-5||
  \                                                 /

Was I too blind...
G|---------------|---------------|---------------|---------------|
D|---------------|---------------|---------------|---------------|
A|2-2-2-2-2-2-2-2|---------------|--------------4|5-5-5-5-5-5-5-5|
E|---------------|3-3-3-3-3-3-3-3|5-5-5-5-5-5-5--|---------------|

         Didn't know it was...     love         x2
G|---------------|---------------||---------------||
D|---------------|---------------||---------------||
A|---------------|---------------||5-5-5-5-5-5-5-5||
E|3-3-3-3-3-3-3-3|5-5-5-5-5-5-5-5||---------------||


  Those crazy nights...
G|---------------|---------------|---------------||---------------||
D|---------------|---------------|---------------||---------------||
A|---------------|--------------5|6-6-6-6-6-6-6-6||5-5-5-5-5-5-5-5||
E|1-1-1-1-1-1-1-1|1-1-1-1-1-1-1--|---------------||---------------||

G|---------------|---------------|-------------------|
D|---------------|---------------|-------------------|
A|---------------|3-3-3-3-3-3-3-3|3-3-3-3/15-15-15-15| [15th fret :)]
E|6-6-6-6-6-6-6-6|---------------|-------------------|

  [SOLO]
                                                x2
G|---------------|---------------||---------------||
D|---------------|---------------||---------------||
A|5-5-5-5-5-5-5-5|---------------||---------------||
E|---------------|3-3-3-3-3-3-3-3||5-5-5-5-5-5-5-5||

[BRIDGE]
  I was lookin' for trouble...                    Love was lookin' ->
G|---------------|---------------|---------------|---------------|
D|---------------|---------------|---------------|---------------|
A|---------------|---------------|---------------|---------------|
E|0-2-3-3-3-3-3-3|3-3-3-3-3-3-3-3|5-5-5-5-5-5-5-5|5-5-5-5-5-5-0-2|

-> at me eye to...                                Didn't know it was->
G|----------|----------|-------------|-----------|
D|----------|----------|-------------|-----------|
A|----------|----------|-------------|-----------|
E|3----2----|0----2----|3--2--5-5-5-5|5-5-0-5----|

->love                                          x2
G|---------------|---------------||---------------||
D|---------------|---------------||---------------||
A|5-5-5-5-5-5-5-5|---------------||---------------||
E|---------------|3-3-3-3-3-3-3-3||5-5-5-5-5-5-5-5||

G|---------------|---------------|---------------|---------------|
D|---------------|---------------|---------------|---------------|
A|2-2-2-2-2-2-2-2|---------------|--------------4|5-5-5-5-5-5-5-5|
E|---------------|3-3-3-3-3-3-3-3|5-5-5-5-5-5-5--|---------------|
                          /                                              x2 \repeat
G|---------------|-------||---------------|---------------||---------------|| and
D|---------------|-------||---------------|---------------||---------------|| fade
A|---------------|-------||5-5-5-5-5-5-5-5|---------------||---------------||
E|3-3-3-3-3-3-3-3|5------||---------------|3-3-3-3-3-3-3-3||5-5-5-5-5-5-5-5||
                          \                                                 /

| /  slide up
| \  slide down
| h  hammer-on
| p  pull-off
| ~  vibrato
| +  harmonic
| x  Mute note
Добавлено: 08.05.2016
Другие материалы по этой песне:
  • Аккорды и текст

Страница создана 18.05.2012
http://primanota.ru/survivor/didnt-know-it-was-love-chords.htm
Привет, Гость.
Предлагаем пройти революционный курс по гитаре.
Подарок от PrimaNota.Ru, забирай!