PrimaNota.ru - самый крупный в мире бесплатный архив песенных текстов, аккордов, табулатур и нот


Sum 41 - Things I Want - таба, видео

Регистрация Запомнить меня
Войти через:  Facebook Google Twitter Vk Yandex Mail.ru

Sum 41 - Things I Want - таба, видео

Печатать
Просмотров: 205
This isn;t my work but the guy who did this hasn't uploaded it here
and I think it is awesome. So just so you know this isnt by me it
is by Juliýn Martýnez.

Band: Sum 41 - Tenacious D
 Song: "Things I Want"
 
 Tabbed By: Juliýn Martýnez  *JMFREAKZ*
 
 Email: Lechuza2@msn.com

  DROP "D" TUNNING
           
            ----------------------------
            ------ THINGS I WANT -------  
            ----------------------------
**Intro:**
  
  Gtr. 1,(3)  Riff 1
e|------------------------------------------------------|
B|------------------------------------------------------|
G|-----------------4-4--6-6----------3-1-0-1-0----------|
D|---1-1--1-3-4-3--4-4--6-6--1-3-4-3------------0-1-3---|
A|---1-1-----------2-2--4-4-----------------------------|
D|---1-1------------------------------------------------|

  Gtr. 1    Riff 2
e|------------------------------------------------------|
B|------------------------------------------------------|
G|-----------------4-4-----------6-6----------x-4-4--6--|
D|---1-1--1-3-4-3--4-4--1-3-4-6--6-6--1-3-4-3-x-4-4--6--|
A|---1-1-----------2-2-----------4-4----------x-2-2--4--|
D|---1-1------------------------------------------------|

**Verse:**
  
  Gtr.1      Riff 3
e|------------------------------------------------------|
B|---4-6-7-9-7-9-11-12--4-6-7-9-11-12-4-(4)-------------|
G|------------------------------------------------------|
D|------------------------------------------------------|
A|------------------------------------------------------|
D|------------------------------------------------------|

    While Gtrs. 1,3 do Riff 3, Gtr.2 does Riff 4 
   
  Gtr.2    Riff 4
e|---------------------------------------------------------------|
B|---------------------------------------------------------------|  (x8)
G|---------------------------------------------------------------|
D|---------------------------------------------------------------| (Keep doing this 
A|---6--6-6-6--6-6-6--6-6-6-6-6-6-----------------4--4-4-4--4-4--|  till Prechorus 
D|---------------------------------4--4-4-4--4-4-----------------|     begins)

**Prechorus:**

   Riff 4 breaks with this:
 Gtr.1 
e|----------------------------------------------------
B|----------------------------------------------------
G|-------6--------8-----------------------------------
D|----4--6--x--6--8--x--------------------------------
A|----4--4--x--6--6--x--------------------------------
D|----4-----x--6-----x--------------------------------

 
   Play this inmediatly after the upper part:
  Gtr. 1
e|----------------------------------------------------
B|----------------------------------------------------
G|--------------------------------6--------8----------
D|---8------------------8------4--6--x--6--8--x-------
A|---8------------------8------4--4--x--6--6--x-------
D|---8-----11-p-10-/-6--8------4-----x--6-----x-------

    And then this:
  Gtr. 1
e|----------------------------------------------------
B|----------------------------------------------------
G|----------------------------------6--------8--------
D|---11------------------11------4--6--x--6--8--x-----
A|---11------------------11------4--4--x--6--6--x-----
D|---11-----14-p-13-/-9--11------4-----x--6-----x-----


e|----------------------------------------------------|
B|----------------------------------------------------|
G|-------6--------8---------6--------8------6---------|
D|----4--6--x--6--8--x---4--6--x--6--8--x---6---------|
A|----4--4--x--6--6--x---4--4--x--6--6--x---4---------|
D|----4-----x--6-----x---4-----x--6-----x-------------|

**Chorus:**

e|----------------------------------------------------|
B|----------------------------------------------------|
G|---8--8--8---6---8--8--8----------------------------|  (x4)
D|---8--8--8---6---8--8--8---4--4--4---6---8--8--8----|
A|---6--6--6---4---6--6--6---4--4--4---6---8--8--8----|
D|---------------------------4--4--4---6---8--8--8----|

  At the end of almost every chorus riff, guitar 2 does this:

e|----------------------------------------------------|
B|----------------------------------------------------|
G|-----10-h-11-p-10-h-11-p-10--6--8-------------------|
D|----------------------------------------------------|
A|----------------------------------------------------|
D|----------------------------------------------------|


**Verse:**
  
  Gtr.1      Riff 3
e|----------------------------------------------------|
B|---4-6-7-9-7-9-11-12--4-(4)-------------------------|
G|----------------------------------------------------|
D|----------------------------------------------------|
A|----------------------------------------------------|
D|----------------------------------------------------|

    While Gtrs. 1,3 do Riff 3, Gtr.2 does Riff 4 
   
  Gtr.2    Riff 4
e|---------------------------------------------------------------|
B|---------------------------------------------------------------|  (x8)
G|---------------------------------------------------------------|
D|---------------------------------------------------------------| (Keep doing this 
A|---6--6-6-6--6-6-6--6-6-6-6-6-6-----------------4--4-4-4--4-4--|  till Prechorus 
D|---------------------------------4--4-4-4--4-4-----------------|     begins)


**Prechorus**

**Chorus**
 
  Before The solo, the part of **Intro** repeats a few times:

**Solo:**

  Gtr: 1

    Part 1:
e|---18-p-17-p-14--18-p-17-p-14--18-p-17-p-14-|-19-p-18-p-14--19-p-18-p-14--19-p-18-p-14--
B|--------------------------------------------|-------------------------------------------
G|--------------------------------------------|-------------------------------------------
D|--------------------------------------------|-------------------------------------------
A|--------------------------------------------|-------------------------------------------
D|--------------------------------------------|-------------------------------------------


e|--17-p-16-p-14--17-p-16-p-14--17-p-16-p-14--|-18-p-17-p-14--18-p-17-p-14--18-p-17-p-14--|
B|--------------------------------------------|-------------------------------------------|
G|--------------------------------------------|-------------------------------------------|
D|--------------------------------------------|-------------------------------------------|
A|--------------------------------------------|-------------------------------------------|
D|--------------------------------------------|-------------------------------------------|

**Solo:**

  Part 2:
e|---11----11----13-/-14-13-11-13-11-9-9-9-9-9-9-9-/-11-11-11-11-11-11-11-
B|------11----11----------------------------------------------------------
G|------------------------------------------------------------------------
D|------------------------------------------------------------------------
A|------------------------------------------------------------------------
D|------------------------------------------------------------------------


e|---14-p-13-p-11--13-p-12-11--14-p-13-p-11--13-p-12-11--|
B|-------------------------------------------------------|
G|-------------------------------------------------------| (x2)
D|-------------------------------------------------------|
A|-------------------------------------------------------|
D|-------------------------------------------------------|


e|---18-16-14-13-14-16-18-18-18-18-18-16-14-13-(13)---13-|
B|-------------------------------------------------------|
G|-------------------------------------------------------|
D|-------------------------------------------------------|
A|-------------------------------------------------------|
D|-------------------------------------------------------|   


**Prechorus**


**Chorus**
 

**Outro:**
  
  Gtr.1
e|----6-p-4--6-p-4-----6-p-4--6-p-4-----6-p-4--6-p-4-----6-p-4--6-p-4-------|
B|------------------4----------------4----------------4----------------4----|
G|--------------------------------------------------------------------------|
D|--------------------------------------------------------------------------|
A|--------------------------------------------------------------------------|
D|--------------------------------------------------------------------------|


e|--------------------------------------------------------------------------|
B|--------------------------------------------------------------------------|
G|--------------------------------------------------------------------------|
D|--1---------------1----------------1----------------1----------------1----|
A|--1---------------1----------------1----------------1----------------1----|
D|--1---------------1----------------1----------------1----------------1----|

                              ---------------
                              ------END------
                              ---------------

 I was searching tabs of this song but I didn't find them, so I decided to 
 submit it out by myself, and here it is, I think it's 100% right, 
 hear the song, and play it out!!

    Let Punk Rule!!  jaja
 

    JMFREAKZ
Добавлено: 26.02.2012
Другие материалы по этой песне:

Страница создана 26.02.2012
http://primanota.ru/sum-41/things-i-want-chords.htm
Привет, Гость.
Предлагаем пройти революционный курс по гитаре.
Подарок от PrimaNota.Ru, забирай!