PrimaNota.ru - самый крупный в мире бесплатный архив песенных текстов, аккордов, табулатур и нот


Sum 41 - Noots - аккорды и текст, таба, бас-таба, видео

Регистрация Запомнить меня
Войти через:  Facebook Google Twitter Vk Yandex Mail.ru

Sum 41 - Noots - аккорды и текст, таба, бас-таба, видео

Печатать
Просмотров: 889
Авторы: Sum 41

Noots
Sum 41
Sum 41
Noots
Chuck/Fantastic 4 Soundtrack
2004 Island Records
Submitted by: paramore_fans@yahoo.com

Key: Ab

Tuning: Standard EADGBe

Chords used:
Fm -   133111
C# -   x46664
G# -   466544
Eb -   x68886
Bbm -  x13321
Eb/G - 365xxx


Intro:

Deryck: Fm--C#--G#--Eb

Dave:
    E  E  E  E  E  E  E.  S    E  E  E  E  E  E  Q      
E|--8-----8-----8-----8---8-|--9-----9-----9-----9S----|
B|--9-----9-----9-----9---9-|--9-----9-----9-----9S----|
G|--------------------------|--------------------------|
D|--------------------------|--------------------------| x2
A|--------------------------|--------------------------|
E|--------------------------|--------------------------|


Deryck: Fm--C#--Eb--G#-Eb/G x2

Dave:
 E   E  E  E   E   E  E  E     E  E  E  E   E   E  E  E   
------------------------------|----------------------------|
----------8--8---9---9--8--8--|--------8--8---9---9--8--8--|
--10--10--0--0----------0--0--|--8--8--0--0----------0--0--|
---x---x--x--x---x---x--x--x--|--x--x--x--x---x---x--x--x--|
---8---8--------11--11--------|--6--6--------11--11--------|
------------------------------|----------------------------|

  E  E  E  E   E   E   E   E      E   E   E   E   E   E  E  E   
------------------------------|--------------------------------|
--6--6--8--8---9---9--11--11--|--------------------------------|
--------0--0------------------|--13--13--12--12--10--10--8--8--|
--x--x--x--x---x---x---x---x--|---x---x---x---x---x---x--x--x--|
--8--8--------11--11--13--13--|--11--11--10--10---8---8--6--6--|
------------------------------|--------------------------------|

  E  E  E  E   E   E  E  E     E  E  E  E   E   E  E  E   
----------------------------|----------------------------|
--6--6--8--8---9---9--8--8--|--------8--8---9---9--8--8--|
--------0--0----------0--0--|--8--8--0--0----------0--0--|
--x--x--x--x---x---x--x--x--|--x--x--x--x---x---x--x--x--|
--8--8--------11--11--------|--6--6--------11--11--------|
----------------------------|----------------------------|

  E  E  E  E   E   E   E   E      E   E   E   E   E   E  E  E   
------------------------------|--------------------------------|
--6--6--8--8---9---9--11--11--|--------------------------------|
--------0--0------------------|--13--13--12--12--10--10--8--8--|
--x--x--x--x---x---x---x---x--|---x---x---x---x---x---x--x--x--|
--8--8--------11--11--13--13--|--11--11--10--10---8---8--6--6--|
------------------------------|--------------------------------|


Verse 1:
Fm     Ab
  Today is too late
C#
How long do we have to wait
Fm        Ab
  Oh no I think she knows
Bbm
  That's why I can't let go
Fm            Ab
  I feel this burning inside
C#
  A feeling that no one should know
Fm               Ab
This could be so good again
    Bbm
I'd wait here till then


Dave: at "I feel this burning inside"
    E  E  E  E  E  E  E  E     E  E  E  E  E  E  E  E     W                 
e|--1--1--1-----1--1--1-----|--3--3--3-----3--3--3-----|--6-
B|--1--1--1-----1--1--1-----|--4--4--4-----4--4--4-----|----
G|--------------------------|--------------------------|----
D|--------------------------|--------------------------|----
A|--------------------------|--------------------------|----
E|--------------------------|--------------------------|----


Refrain:
    Eb
But not with this
So now I'll leave with


Dave: Refrain
    E     Q    E  E  E  E  E  E   
e|-----------------------|-------------1-----------|
B|--4------4------2S--4--|--L----2--4-----4--2--1--|
G|-----------------------|-------------------------|
D|-----------------------|-------------------------|
A|-----------------------|-------------------------|
E|-----------------------|-------------------------|

  Q.     Q.     E   E     Q    E  E  E  E  E  E  
-----------------------|-------------1-----------|
--4------4------2S--4--|--L----2--4-----4--2--1--|
-----------------------|-------------------------|
-----------------------|-------------------------|
-----------------------|-------------------------|
-----------------------|-------------------------|


Chorus:
Fm  C#  Ab
No apologies
        Eb
I never thought you'd be
   Fm  C#    Ab
so Easily deceived
         Eb
Now I'll just hang my head
     C#      Fm      Ab     Eb
(I'm falling further out of place)
While I walk with the dead
 C#      Fm     Ab     Eb
(all the lies I can't erase)
I'll just hang my head


Post chorus: Fm--C#--Eb--G#-Eb/G



Verse 2:
Fm         Ab
  We're mad with regret
C#
  Memories that we'll both forget
Fm            Ab
  So far it's been so hard
Bbm
  To cover up these scars
Fm           Ab
  I see this falling apart
C#
  It's easy to just let it go
Fm           Ab
  No luck between us both
   Bbm
So I keep waiting


(Repeat Refrain and Chorus)


Bridge:
Fm           C#
  What's left to show
Ab                  Eb
  It's so bad but I got to know
Fm            C#
  What's right don't know
Ab               Eb
  How to find it out on my own


Interlude: Fm--Bbm-Eb x2


Cone's Bass Solo: do it until the end of verse 3
          Fm        Bbm        Eb
G|-8-|-10-------|----8-10-|-8-------
D|---|----11----|-11------|---11----
A|---|-------11-|---------|------11-
E|---|----------|---------|---------
          x2


Verse 3:
Fm
One by one we all fall down
Bbm
Who's the first one
   Eb
to hit the ground now
Fm
  What's worse to kick or fall
  Bbm        Eb
Or be us standing alone
Fm
  I'll keep your promises if you
Bbm               Eb
  Take back every thing I said
Fm
  I find its got so cold now
Bbm                 Eb            (hold)
  That I've lost my heart and soul


(Repeat Chorus)


Outro: Ebm--B-C#-Ebm


B C#      Ebm--B-C#--Eb(hold)
  Hang my head 
Добавлено: 26.05.2012
Другие материалы по этой песне:

Страница создана 16.03.2012
http://primanota.ru/sum-41/noots-chords.htm
Привет, Гость.
Предлагаем пройти революционный курс по гитаре.
Подарок от PrimaNota.Ru, забирай!