PrimaNota.ru - самый крупный в мире бесплатный архив песенных текстов, аккордов, табулатур и нот


Sum 41 - Were All To Blame - аккорды и текст, таба, бас-таба, видео

Регистрация Запомнить меня
Войти через:  Facebook Google Twitter Vk Yandex Mail.ru

Sum 41 - Were All To Blame - аккорды и текст, таба, бас-таба, видео

Печатать
Просмотров: 1028
Авторы: Sum 41

Were All To Blame
Sum 41
Sum 41
We're All To Blame
Chuck
2004 Island Records
Submitted by: paramore_fans@yahoo.com

Key: B

Tuning: 

Deryck: Drop D
Ebm - 111xxx
E -   222xxx
Abm - 666xxx
Eb -  111xxx
C#m - x46654
C# -  x466xx
F# -  444xxx
B -   x24442 or x244xx 
Bbm - x133xx
F  -  333xxx

Dave: Drop D

Chords used: For Standard Tuning
Ebm - x68876 or x688xx
E -   022100 or 079900
G#m - 466444 or x-11-13-13-x-x
Eb -  x68886
C#m - x46654
C# -  x466xx
F# -  244322 or x-9-11-11-x-x
B -   x24442 or x244xx 
Bbm - x133xx
F  -  133211 or x-8-10-10-x-x


Intro: Ebm--E-Ebm x3

B    Bbm B  C#
Take eve-ry-thing
Bbm  B    Ebm
left from me
   Ebm  Ebm     B-Bbm-B-C#-Bbm-B x2, Ebm-Ebm-Ebm-Ebm
ALL   TO   BLAME


Dave: Intro
      E  S S E  S S E  E  E  E       E  S S E  S S E  E  E  E   
E||------------------------------||----------------------------|
B||------------------------------||----------------------------|
G||*--8--8-8-8--8-8-8--8--9--8--*||--8--8-8-8--8-8-8--8--9--8--|
D||*----------------------------*||----------------------------|
A||---6--6-6-6--6-6-6--6--7--6---||--6--6-6-6--6-6-6--6--7--6--|
D||------------------------------||----------------------------|

  |----3----|     |----3----|                                   
  Q    Q    Q     Q    Q    Q       S S S S S S S S Q     Q     
---------------------------------|-----------------------------|
---------------------------------|-----------------------------|
---------------------------------|-----------------------11----|
--9----8----9----11----8----9----|--1-1-1-1-1-1-1-1------------|
--9----8----9----11----8----9----|--1-1-1-1-1-1-1-1-------9----|
--9----8----9----11----8----9----|--1-1-1-1-1-1-1-1------------|

  S S S S S S S S Q     Q       S S S S S S S S Q     Q     
-----------------------------|-----------------------------|
-----------------------------|-----------------------------|
-----------------------11----|-----------------------11----|
--1-1-1-1-1-1-1-1------------|--1-1-1-1-1-1-1-1------------|
--1-1-1-1-1-1-1-1-------9----|--1-1-1-1-1-1-1-1-------9----|
--1-1-1-1-1-1-1-1------------|--1-1-1-1-1-1-1-1------------|

                                    PM   PM   PM    PM   PM   PM    
  |----3----|     |----3----|       |----3----|     |----3----|     
  Q    Q    Q     Q    Q    Q       Q    Q    Q     Q    Q    Q     
---------------------------------|---------------------------------|
---------------------------------|---------------------------------|
---------------------------------|---------------------------------|
--9----8----9----11----8----9----|--9----8----9----11----8----9----|
--9----8----9----11----8----9----|--9----8----9----11----8----9----|
--9----8----9----11----8----9----|--9----8----9----11----8----9----|

  E  E  E  E  E  E  E  E 
--------------------------
--------------------------
--------------------------
--1-----1-----1-----1-----
--1-----1-----1-----1-----
--1-----1-----1-----1-----


Verse 1:
Ebm
How can we still succeed
                     Ebm--Ebm-F#--Ebm--Ebm--Ebm-F--Ebm--Ebm--Ebm-E--Ebm--Ebm-E-Ebm-E
taking what we don't need?
Ebm
Telling lies as alibis
selling all the
             Ebm--Ebm-F#--Ebm--Ebm--Ebm-F--Ebm--Ebm--Ebm-E--Ebm--Ebm-E-Ebm-E
hate that we breed
Ebm                Ebm--
SUPERSIZE OUR TRAGEDIES
           F# Ebm
(You can't de-fine
  F Ebm     E Ebm E Ebm   E
me    or justify    greed)
Ebm
Bought in the
            Ebm--
land of the free
F# Ebm F Ebm
  (LAND, FREE)
B  Bbm B C#   Bbm B
and      we're


Dave: Verses
   S S S S S S S S S S S S S S S S  
----------------------------------|
----------------------------------|
--8-8-8-8-8-8-8-8-8-8-8-8-3-3-3-3-|
----------------------------------|
--6-6-6-6-6-6-6-6-6-6-6-6-1-1-1-1-|
----------------------------------|

  S S S S S S S S S S S S S S S S    E  S S S S S S E  S S S S S S  
----------------------------------|--------------------------------|
----------------------------------|--------------------------------|
--6-6-6-6-6-6-6-6-4-4-4-4-4-4-4-4-|--------------------------------|
----------------------------------|--1----1-4---1---1----1-3---1---|
--4-4-4-4-4-4-4-4-2-2-2-2-2-2-2-2-|--1----1-4---1---1----1-3---1---|
----------------------------------|--1----1-4---1---1----1-3---1---|

  E  S S S S S S E  E  S S E     S S S S S S S S S S S S S S S S  
------------------------------|----------------------------------|
------------------------------|----------------------------------|
------------------------------|--8-8-8-8-8-8-8-8-8-8-8-8-3-3-3-3-|
--1----1-2---1---1--2--x---2--|----------------------------------|
--1----1-2---1---1--2--x---2--|--6-6-6-6-6-6-6-6-6-6-6-6-1-1-1-1-|
--1----1-2---1---1--2--x---2--|----------------------------------|

  S S S S S S S S S S S S S S S S    E  S S S S S S E  S S S S S S  
----------------------------------|--------------------------------|
----------------------------------|--------------------------------|
--4-4-4-4-4-4-4-4-6-6-6-6-6-6-6-6-|--------------------------------|
----------------------------------|--1----1-4---1---1----1-3---1---|
--2-2-2-2-2-2-2-2-4-4-4-4-4-4-4-4-|--1----1-4---1---1----1-3---1---|
----------------------------------|--1----1-4---1---1----1-3---1---|

  E  S S S S S S E  E  S S E     S S S S S S  S  S  S  S  S  S  S  S  S  S  
------------------------------|--------------------------------------------|
------------------------------|--------------------------------------------|
------------------------------|--8-8-8-8-8-8-11-11-11-11-11-11-10-10-10-10-|
--1----1-2---1---1--2--x---2--|--------------------------------------------|
--1----1-2---1---1--2--x---2--|--6-6-6-6-6-6--9--9--9--9--9--9--8--8--8--8-|
--1----1-2---1---1--2--x---2--|--------------------------------------------|

   S  S S S S S S  S  S  S  S  S  S  S  S  S    E  S S S S S S E  S S S S S S  
---------------------------------------------|--------------------------------|
---------------------------------------------|--------------------------------|
--10-10-6-6-6-6-6-10-10-10-10-10-10-10-10-10-|--------------------------------|
---------------------------------------------|--1----1-4---1---1----1-3---1---|
---8--8-4-4-4-4-4--8--8--8--8--8--8--8--8--8-|--1----1-4---1---1----1-3---1---|
---------------------------------------------|--1----1-4---1---1----1-3---1---|

  E  S S S S S S E  E  S S E     S S S S S S  S  S  S  S  S  S S S S S  
------------------------------|----------------------------------------|
------------------------------|----------------------------------------|
------------------------------|--8-8-8-8-8-8-11-11-11-11-11-11-6-6-6-6-|
--1----1-2---1---1--2--x---2--|----------------------------------------|
--1----1-2---1---1--2--x---2--|--6-6-6-6-6-6--9--9--9--9--9--9-4-4-4-4-|
--1----1-2---1---1--2--x---2--|----------------------------------------|

   S  S  S  S  S  S  S  S  S  S  S  S  S  S  S  S  
--------------------------------------------------|
--------------------------------------------------|
--13-13-13-13-13-13-13-13-11-11-11-11-11-11-11-11-|
--------------------------------------------------|
--11-11-11-11-11-11-11-11--9--9--9--9--9--9--9--9-|
--------------------------------------------------|

                                   |----3----|     |----3----|     
  E  S S S S S S E  S S S S S S    Q    Q    Q     Q    Q    Q     
--------------------------------|---------------------------------|
--------------------------------|---------------------------------|
--------------------------------|---------------------------------|
--1----1-4---1---1----1-3---1---|--9----8----9----11----8----9----|
--1----1-4---1---1----1-3---1---|--9----8----9----11----8----9----|
--1----1-4---1---1----1-3---1---|--9----8----9----11----8----9----|



Chorus 1:
Abm C#m F#
all to  blame
      Eb       Abm
We've gone too far
     C#m      F#
From pride to shame
      Eb        Abm
We're trying so hard
      C#m      F#
We're dying in vain
      Eb
We're hopelessly
             Abm
blissful and blind
   C#m    F#
to all we are
   Eb      (hold) B Bbm
We want it all
B    C# Bbm B  Ebm-Ebm-Ebm-Ebm
With no sa--crifice!!


Dave: Chorus 1
  W                   B        B           W                 
-------------------|--------------------|-------------------|
-------------------|--------------------|-------------------|
-------------------|--------------------|-------------------|
--6----------------|--L-----------------|-------------------|
--6----------------|--------------------|-------------------|
--6----------------|--L-----------------|-------------------|

  W                   Q    Q    Q    Q       Q    Q    Q    Q     
-------------------|----------------------|--9---------9---------|
-------------------|--9---------9---------|-------9---------9----|
-------------------|-------8---------8----|-------8----9----8----|
-------------------|------------9---------|--6-------------------|
-------------------|----------------------|----------------------|
-------------------|----------------------|----------------------|

  Q    Q    Q    Q       Q    Q    Q    Q       Q    Q    Q    Q     
--6---------6---------|--6---------6---------|----------------------|
-------7----7----7----|-------8---------8----|--9---------9---------|
-------6---------6----|--8-------------------|-------8---------8----|
--4-------------------|-------8----8----8----|------------9---------|
----------------------|----------------------|----------------------|
----------------------|----------------------|----------------------|

  Q    Q    Q    Q       Q    Q    Q    Q       Q    Q    Q    Q     
--9---------9---------|--6---------6---------|--6---------6---------|
-------9---------9----|-------7----7----7----|-------8---------8----|
-------8----9----8----|-------6---------6----|--8-------------------|
--6-------------------|--4-------------------|-------8----8----8----|
----------------------|----------------------|----------------------|
----------------------|----------------------|----------------------|

  Q    Q    Q    Q       Q    Q    Q    Q       Q    Q    Q    Q     
----------------------|--9---------9---------|--6---------6---------|
--9---------9---------|-------9---------9----|-------7----7----7----|
-------8---------8----|-------8----9----8----|-------6---------6----|
------------9---------|--6-------------------|--4-------------------|
----------------------|----------------------|----------------------|
----------------------|----------------------|----------------------|

                        |----3----|     |----3----|     
  Q    Q    H           Q    Q    Q     Q    Q    Q     
--6---------6--------|---------------------------------|
-------8-------------|---------------------------------|
--8------------------|---------------------------------|
-------8----8--------|--9----8----9----11----8----9----|
---------------------|--9----8----9----11----8----9----|
---------------------|--9----8----9----11----8----9----|



Verse 2:
Ebm
Realize we spend our lives
                       Ebm--Ebm-F#--Ebm--Ebm--Ebm-F--Ebm--Ebm--Ebm-E--Ebm--Ebm-E-Ebm-E
living in a culture of fear
 Ebm
Stand to salute say thanks
                  Ebm--Ebm-F#--Ebm--Ebm--Ebm-F--Ebm--Ebm--Ebm-E--Ebm--Ebm-E-Ebm-E
to the man of the year
Ebm                    
How did we all come to this?
           F# Ebm
(You can't de-fine
  F Ebm     E Ebm E Ebm   E
me    or justify    greed)
     Ebm
This greed that we
             Ebm
just can't resist!
F#   Ebm F     Ebm
  (RE-----SIST)
B  Bbm B C#   Bbm B
and      we're


Chorus 2:
Abm C#m F#
all to  blame
      Eb       Abm
We've gone too far
     C#m      F#
From pride to shame
      Eb        Abm
We're trying so hard
      C#m      F#
We're dying in vain
      Eb
We're hopelessly
             Abm
blissful and blind
   C#m    F#
to all we are
   Eb      Abm E B
We want it all
 F#  Abm E       B    
everyone want it all
F#(hold)     Ebm-Ebm-Ebm-F#-Ebm-Ebm-Ebm-F-Ebm-Ebm-Ebm-F-Ebm-F#-Abm-E x2
with no SACRIFICE!!


Dave: Chorus 2:
  W                   B        B           W                 
-------------------|--------------------|-------------------|
-------------------|--------------------|-------------------|
-------------------|--------------------|-------------------|
--6----------------|--L-----------------|-------------------|
--6----------------|--------------------|-------------------|
--6----------------|--L-----------------|-------------------|

  W                   Q    Q    Q    Q       Q    Q    Q    Q     
-------------------|----------------------|--9---------9---------|
-------------------|--9---------9---------|-------9---------9----|
-------------------|-------8---------8----|-------8----9----8----|
-------------------|------------9---------|--6-------------------|
-------------------|----------------------|----------------------|
-------------------|----------------------|----------------------|

  Q    Q    Q    Q       Q    Q    Q    Q       Q    Q    Q    Q     
--6---------6---------|--6---------6---------|----------------------|
-------7----7----7----|-------8---------8----|--9---------9---------|
-------6---------6----|--8-------------------|-------8---------8----|
--4-------------------|-------8----8----8----|------------9---------|
----------------------|----------------------|----------------------|
----------------------|----------------------|----------------------|

  Q    Q    Q    Q       Q    Q    Q    Q       Q    Q    Q    Q     
--9---------9---------|--6---------6---------|--6---------6---------|
-------9---------9----|-------7----7----7----|-------8---------8----|
-------8----9----8----|-------6---------6----|--8-------------------|
--6-------------------|--4-------------------|-------8----8----8----|
----------------------|----------------------|----------------------|
----------------------|----------------------|----------------------|

  Q    Q    Q    Q       Q    Q    Q    Q       Q    Q    Q    Q     
----------------------|--9---------9---------|--6---------6---------|
--9---------9---------|-------9---------9----|-------7----7----7----|
-------8---------8----|-------8----9----8----|-------6---------6----|
------------9---------|--6-------------------|--4-------------------|
----------------------|----------------------|----------------------|
----------------------|----------------------|----------------------|

  Q    Q    H           Q    Q    Q    Q       Q    Q    Q    Q     
--6---------6--------|----------------------|--9---------9---------|
-------8-------------|--9---------9---------|-------9---------9----|
--8------------------|-------8---------8----|-------8----9----8----|
-------8----8--------|------------9---------|--6-------------------|
---------------------|----------------------|----------------------|
---------------------|----------------------|----------------------|

  Q    Q    Q    Q       Q    Q    Q    Q       Q    Q    Q    Q     
--6---------6---------|--6---------6---------|----------------------|
-------7----7----7----|-------8---------8----|--9---------9---------|
-------6---------6----|--8-------------------|-------8---------8----|
--4-------------------|-------8----8----8----|------------9---------|
----------------------|----------------------|----------------------|
----------------------|----------------------|----------------------|

  Q    Q    Q    Q       Q    Q    Q    Q       Q    Q    Q    Q     
--9---------9---------|--6---------6---------|--6---------6---------|
-------9---------9----|-------7----7----7----|-------8---------8----|
-------8----9----8----|-------6---------6----|--8-------------------|
--6-------------------|--4-------------------|-------8----8----8----|
----------------------|----------------------|----------------------|
----------------------|----------------------|----------------------|

                      pm(SACRIFICE!!!!)                                                        
  W                   E  S S S S E  E  S S S S E     E  S S S S E  E  E  E  E   
-------------------|------------------------------|----------------------------|
--4----------------|------------------------------|----------------------------|
--4----------------|------------------------------|-------------------------9--|
--6----------------|--1----------4--1----------3--|--1----------3--1--4--6-----|
--6----------------|--1--1-1-1-1-4--1--1-1-1-1-3--|--1--1-1-1-1-3--1--4--6--7--|
--6----------------|--1--1-1-1-1-4--1--1-1-1-1-3--|--1--1-1-1-1-3--1--4--6-----|

  pm                                                        
  E  S S S S E  E  S S S S E     E  S S S S E  E  E  E  E   
------------------------------|----------------------------|
------------------------------|----------------------------|
------------------------------|-------------------------9--|
--1----------4--1----------3--|--1----------3--1--4--6-----|
--1--1-1-1-1-4--1--1-1-1-1-3--|--1--1-1-1-1-3--1--4--6--7--|
--1--1-1-1-1-4--1--1-1-1-1-3--|--1--1-1-1-1-3--1--4--6-----|


Bridge:
Ebm
Tell me now what have
we done? We don't know!
I can't allow what has
begun to tear me
down Believe me now
we have no choice left
                           F#
With our backs against the wall!!!


Dave: Bridge
     pm                                                    
  E  S  S S S S S S E.  Q       E  S S S S S S S E.  Q     
-----------------------------|----------------------------|
-----------------------------|----------------------------|
-----------------------------|----------------------------|
--1--1--1-1-1-1-1-1----------|--1--1-1-1-1-1-1-1----------|
--1--1--1-1-1-1-1-1----------|--1--1-1-1-1-1-1-1----------|
--1--1--1-1-1-1-1-1----------|--1--1-1-1-1-1-1-1----------|

  E  S S S S S S S E.  Q       E  S S S S S S S E.  S S S S  
----------------------------|-------------------------------|
----------------------------|-------------------------------|
----------------------------|-------------------------------|
--1--1-1-1-1-1-1-1----------|--1--1-1-1-1-1-1-1-------------|
--1--1-1-1-1-1-1-1----------|--1--1-1-1-1-1-1-1-----1-------|
--1--1-1-1-1-1-1-1----------|--1--1-1-1-1-1-1-1-------4-3-4-|

  E  S S S S S S S E.  Q       E  S S S S S S S E.  Q     
----------------------------|----------------------------|
----------------------------|----------------------------|
-----------------------4----|-----------------------3----|
--1--1-1-1-1-1-1-1----------|--1--1-1-1-1-1-1-1----------|
--1--1-1-1-1-1-1-1-----2----|--1--1-1-1-1-1-1-1-----1----|
--1--1-1-1-1-1-1-1----------|--1--1-1-1-1-1-1-1----------|

                               PM PM PM PM PM PM PM PM  
  E  S S S S S S S E.  Q       E  E  E  E  E  E  E  E   
----------------------------|--------------------------|
----------------------------|--------------------------|
-----------------------4----|--------------------------|
--1--1-1-1-1-1-1-1----------|--4--4--4--4--4--4--4--4--|
--1--1-1-1-1-1-1-1-----2----|--4--4--4--4--4--4--4--4--|
--1--1-1-1-1-1-1-1----------|--4--4--4--4--4--4--4--4--|

  PM PM PM PM PM PM PM                                                   
  E  E  E  E  E  E  E  E 
--------------------------
--------------------------
--------------------------
--4--4--4--4--4--4--4--4--
--4--4--4--4--4--4--4--4--
--4--4--4--4--4--4--4--4--



Chorus 3:
    Abm       C#m    F#
And now we're all to blame
      Eb       Abm
We've gone too far
     C#m      F#
From pride to shame
      Eb
We're hopelessly
             Abm
blissful and blind
     E      B
When all we need
   F#        Abm
Is something true
E    B
To believe
F#       Abm
Don't we all?
E    B   F#   Abm
Everyone everyone
E       B    F#
We will fall coz we're


Dave: Chorus 3
    Q    Q    Q    Q       Q    Q    Q    Q     
e|----------------------|--9---------9---------|
B|--9---------9---------|-------9---------9----|
G|-------8---------8----|-------8----9----8----|
D|------------9---------|--6-------------------|
A|----------------------|----------------------|
D|----------------------|----------------------|

  Q    Q    Q    Q       Q    Q    Q    Q       Q    Q    Q    Q     
--6---------6---------|--6---------6---------|----------------------|
-------7----7----7----|-------8---------8----|--9---------9---------|
-------6---------6----|--8-------------------|-------8---------8----|
--4-------------------|-------8----8----8----|------------9---------|
----------------------|----------------------|----------------------|
----------------------|----------------------|----------------------|

  Q    Q    Q    Q       Q    Q    Q    Q       Q    Q    Q    Q     
--9---------9---------|--6---------6---------|--6---------6---------|
-------9---------9----|-------7----7----7----|-------8---------8----|
-------8----9----8----|-------6---------6----|--8-------------------|
--6-------------------|--4-------------------|-------8----8----8----|
----------------------|----------------------|----------------------|
----------------------|----------------------|----------------------|

  Q    Q    Q    Q       Q    Q    Q    Q       Q    Q    Q    Q     
----------------------|--9---------9---------|--6---------6---------|
--9---------9---------|-------9---------9----|-------7----7----7----|
-------8---------8----|-------8----9----8----|-------6---------6----|
------------9---------|--6-------------------|--4-------------------|
----------------------|----------------------|----------------------|
----------------------|----------------------|----------------------|

  Q    Q    H           S S S S S S S S S S S S S S S S  
--6---------6--------|----------------------------------|
-------8-------------|----------------------------------|
--8------------------|--8-8-8-8-8-8-8-8-8-8-8-8-8-8-8-8-|
-------8----8--------|----------------------------------|
---------------------|--6-6-6-6-6-6-6-6-6-6-6-6-6-6-6-6-|
---------------------|----------------------------------|

  S S S S S S S S S S S S S S S S    S S S S S S S S S S S S S S S S  
----------------------------------|----------------------------------|
----------------------------------|----------------------------------|
--4-4-4-4-4-4-4-4-4-3-3-4-4-6-6-6-|--8-8-8-8-8-8-8-8-8-8-8-8-8-8-8-8-|
----------------------------------|----------------------------------|
--2-2-2-2-2-2-2-2-2-1-1-2-2-4-4-4-|--6-6-6-6-6-6-6-6-6-6-6-6-6-6-6-6-|
----------------------------------|----------------------------------|

  S S S S S S S S S S S S S S S S    S S S S S S S S S S S S S S S S  
----------------------------------|----------------------------------|
----------------------------------|----------------------------------|
--6-6-6-6-6-6-6-6-4-4-4-4-4-4-4-4-|--8-8-8-8-8-8-8-8-8-8-8-8-8-8-8-8-|
----------------------------------|----------------------------------|
--4-4-4-4-4-4-4-4-2-2-2-2-2-2-2-2-|--6-6-6-6-6-6-6-6-6-6-6-6-6-6-6-6-|
----------------------------------|----------------------------------|

  S S S S S S S S S S S S S S S S    S S S S S S S S S S S S S S S S  
----------------------------------|----------------------------------|
----------------------------------|----------------------------------|
--4-4-4-4-4-4-4-4-4-3-3-4-4-6-6-6-|--8-8-8-8-8-8-8-8-8-8-8-8-8-8-8-8-|
----------------------------------|----------------------------------|
--2-2-2-2-2-2-2-2-2-1-1-2-2-4-4-4-|--6-6-6-6-6-6-6-6-6-6-6-6-6-6-6-6-|
----------------------------------|----------------------------------|

  S S S S S S S S S S S S S S S S    S S S S S S S S S S S S S S S S  
----------------------------------|----------------------------------|
----------------------------------|----------------------------------|
--6-6-6-6-6-6-6-6-4-4-4-4-4-4-4-4-|--8-8-8-8-8-8-8-8-8-8-8-8-8-8-8-8-|
----------------------------------|----------------------------------|
--4-4-4-4-4-4-4-4-2-2-2-2-2-2-2-2-|--6-6-6-6-6-6-6-6-6-6-6-6-6-6-6-6-|
----------------------------------|----------------------------------|


  S S S S S S S S S S S S S S S S    S S S S S S S S S S S S S S S S  
----------------------------------|----------------------------------|
----------------------------------|----------------------------------|
--4-4-4-4-4-4-4-4-4-3-3-4-4-6-6-6-|--8-8-8-8-8-8-8-8-8-8-8-8-8-8-8-8-|
----------------------------------|----------------------------------|
--2-2-2-2-2-2-2-2-2-1-1-2-2-4-4-4-|--6-6-6-6-6-6-6-6-6-6-6-6-6-6-6-6-|
----------------------------------|----------------------------------|

  S S S S S S S S S S S S S S S S                                      
----------------------------------|
----------------------------------|
--6-6-6-6-6-6-6-6-4-4-4-4-4-4-4-4-|
----------------------------------|
--4-4-4-4-4-4-4-4-2-2-2-2-2-2-2-2-|
----------------------------------|


Outro:
Abm C#m F#
all to  blame
      Eb       Abm
We've gone too far
     C#m      F#
From pride to shame
      Eb        Abm
We're trying so hard
      C#m      F#
We're dying in vain
   Eb      Abm
We want it all
C#m  F#  Eb       Abm(hold)
Everyone don't we all?


Dave: Outro, Pedal switched from distorted to clean
              Q    Q    Q    Q       Q    Q    Q    Q     
-----------|----------------------|----------------------|
-----------|--9-------------------|----------------------|
-----------|-------8---------8----|-------8----9----8----|
-----------|------------9---------|--6-------------------|
-----------|----------------------|----------------------|
-----------|----------------------|----------------------|

  Q    Q    Q    Q       Q    Q    Q    Q       Q    Q    Q    Q     
----------------------|----------------------|----------------------|
------------7---------|----------------------|--9-------------------|
-------6---------6----|--8-------------------|-------8---------8----|
--4-------------------|-------8----8----8----|------------9---------|
----------------------|----------------------|----------------------|
----------------------|----------------------|----------------------|

  Q    Q    Q    Q       Q    Q    Q    Q       Q    Q    Q    Q     
----------------------|----------------------|----------------------|
----------------------|------------7---------|----------------------|
-------8----9----8----|-------6---------6----|--8-------------------|
--6-------------------|--4-------------------|-------8----8----8----|
----------------------|----------------------|----------------------|
----------------------|----------------------|----------------------|

  Q    Q    Q    Q       Q    Q    Q    Q       Q    Q    Q    Q     
----------------------|----------------------|----------------------|
--9-------------------|----------------------|------------7---------|
-------8---------8----|-------8----9----8----|-------6---------6----|
------------9---------|--6-------------------|--4-------------------|
----------------------|----------------------|----------------------|
----------------------|----------------------|----------------------|

  Q    Q    Q     Q                      
-----------------------|
-----------------11----|
--8--------------------|
-------8----8----------|
-----------------------|
-----------------------|
Добавлено: 07.06.2012
Другие материалы по этой песне:

Страница создана 23.02.2012
http://primanota.ru/sum-41/were-all-to-blame-chords.htm
Привет, Гость.
Предлагаем пройти революционный курс по гитаре.
Подарок от PrimaNota.Ru, забирай!