PrimaNota.ru - самый крупный в мире бесплатный архив песенных текстов, аккордов, табулатур и нот


Sum 41 - Pull The Curtain - аккорды и текст, таба, бас-таба, драм-таба, видео

Регистрация Запомнить меня
Войти через:  Facebook Google Twitter Vk Yandex Mail.ru

Sum 41 - Pull The Curtain - аккорды и текст, таба, бас-таба, драм-таба, видео

Печатать
Просмотров: 422
Авторы музыки: Deryck Whibley
Авторы текста: Deryck Whibley
Pull The Curtain
Sum 41
Sum 41
Pull The Cutain
Underclass Hero
2007 Interscope Records
Submitted by: paramore_fans@yahoo.com

Key: B

Tuning: Standard EADGBe

Chords used:
B -     x24442
F#/Bb - x143xx
G#m -   466444
F# -    244322
E -     022100
Eb/G -  365xxx
Em -    022000
C#m -   x46654


Intro:

Part 1: G#m--E--B--- x2, Pick slide

Part 2: F#/Bb-B--G#m--E x4


Verse 1:
              B
(Where'd I go wrong?)
                   F#
Pull the curtain begin
                   Abm
paranoia's wearing thin now
F#             E
  It's wearing thin now
              B
(Where'd I go wrong?)
                 F#
Close my eyes realize I've
                Abm
become the victimized now
F#       E
  Desensitized now


Refrain 1:
The one and only
Abm     E
day has come
I pay for all the
B               F#
bad things I've done


Part 2: F#/Bb-B--G#m--E x4


Verse 2:
              B
(Where'd I go wrong?)
Something's wrong
         F#
because I find
the glamour in
    Abm
the dark side
F#       E
  In the dark side
              B
(Where'd I go wrong?)
Cheap regrets
         F#
can't forget
falling victim to
    Abm
the debts still
F#          E
  Unpaid in my mind


(Repeat Refrain 1)


Chorus:
E                   F#
  It's gonna take me you
           Eb/G
don't know tragedy
Abm
  I've been to hell and
F#
back again to tell and
E                  F#
  Close my eyes and lay
   Eb/G
me down to sleep
Abm                      F#
  I fear the worst my beating
                  E
heart ticks to explode
       Em
And my time is up so


Post Chorus: Dercyk Screams at lie

Why can't I just lie?


Bridge: b means bend
   B    F#/Bb             Abm                        
E
e|----|-------|------------14-------14----|-11-------11-------------|
B|----|-------|---------12-------12----12-|----12-------12----12----|
G|-16-|-16----|-16---11-------11----------|-------13-------13----13-|
D|--x-|--x----|--x------------------------|-------------------------|
A|-14-|-14----|-14------------------------|-------------------------|
E|----|-------|---------------------------|-------------------------|


          F#                  Eb/G
e|-------------14--11-|-------------14--11-|
B|-11h12--------------|-11h12--------------|
G|-------11h13--------|-------11h13--------|
D|--------------------|--------------------|
A|--------------------|--------------------|
E|--------------------|--------------------|


   Abm    F#              E                       Em
e|------|----|-------------------------|-------14-------14-----|
B|------|----|-12-12-11-11-12-12-11-11-|----12-------12----14b-|
G|-16---|-18-|-------------------------|-13-------13-----------|
D|--x---|--x-|-------------------------|-----------------------|
A|-14---|-16-|-------------------------|-----------------------|
E|------|----|-------------------------|-----------------------|


Bridge:
B      F#/Bb Abm
Living dead awake
    F#            E
the horror show begins
So pull the
Em
curtains over me


Verse 3:
B            F#/Bb
Bring on the panic
    Abm              F#
The uncontrolled and manic
It's a free-for-all kill
E
them all every
     F#
last one of them
Em
I don't care
(Repeat)


Refrain 2:
Suffocate the
Abm          E
dreams in my mind
(I can't stop believing)
Drown the thoughts
     B          F#
that have me confined
(Stop this heart
from bleeding)
Gutter dreams as
Abm          E
black as the night
(Mom and Dad disowned ya)
No one told me
B           F#
empathy's a lie
(Lost in paranoia)


Refrain 3:
Eb/G
Suffocate the
Abm          E
dreams in my mind
(My last words I'm choking
are all my dreams broken?)
Drown the thoughts
     B          F#
that have me confined
(The silence is deafening
my ears won't stop ringing)
Gutter dreams as
Abm          E
black as the night
(My last words I'm choking
are all my dreams broken?)
No one told me
B           F#
empathy's a lie
(The silence is deafening
                      Abm(hold)
my ears won't stop ringing)


Outro: Same tune as their old song "We're All To Blame"
Abm C#m   F#      B
Now we're gone do you
 F#/Bb Abm      C#m
still  feel the same
    F#   B     F#/Bb Abm
way now? Can't you   see?
       C#m F#
I need help to
 B  F#/Bb Abm   C#m    F#
stop         me from myself
     B
Well can't
F#/Bb Abm  F# E(hold)
you   help me now?
Добавлено: 26.04.2012
Другие материалы по этой песне:

Страница создана 18.03.2012
http://primanota.ru/sum-41/pull-the-curtain-chords.htm
Привет, Гость.
Предлагаем пройти революционный курс по гитаре.
Подарок от PrimaNota.Ru, забирай!