PrimaNota.ru - самый крупный в мире бесплатный архив песенных текстов, аккордов, табулатур и нот


Sum 41 - Grab The Devil By The Horns & Fuck Him Up The Ass - таба, видео

Регистрация Запомнить меня
Войти через:  Facebook Google Twitter Vk Yandex Mail.ru

Sum 41 - Grab The Devil By The Horns & Fuck Him Up The Ass - таба, видео

Печатать
Просмотров: 184
Авторы музыки: Sum 41

Grab The Devil By The Horns And Fuck Him Up The Ass
Sum 41
Half Hour of Power
Tabbed by David Brook (brooky22888@hotmail.com)


x = palm mute
> = pick scrape

Intro Gtr 1:
|-0-2-3-5-3-2-0---|
|---------------3-|
|-----------------|
|-----------------| X4
|-----------------|
|-----------------|

Intro Gtr 2:
|-7-5-7-8-7-5-----|
|-------------8-7-|
|-----------------|
|-----------------| X3
|-----------------|
|-----------------|

Gtr 2:
|--------------|
|--------------|
|--------9-----|
|-10-9---9-9---|
|-10-9---7-9---|
|--8-7-0---7-0-|



Verse Gtr 1:
On the muted parts you have to get it to sound like a horse galloping. Listen to the song
for strumming patterns.
|---------------------------------------------------------------------------|
|---------------------------------------------------------------------------|
|-9-------------------7-----------------------------------------------9-----|
|-9-------------------7-------------------10-------------------10-9---9-9---| X4
|-7--7-7-7-7-7-7-7-7--5--5-5-5-5-5-5-5-5--10-------------------10-9---7-9---|
|------------------------------------------8--8-8-8-8-8-8-8-8---8-7-0---7-0-|
     x-x-x-x-x-x-x-x     x-x-x-x-x-x-x-x      x-x-x-x-x-x-x-x


Verse Gtr 2:
This comes in after Gtr 1 has played the verse twice.
|-0-2-3-5-3-2-0---|
|---------------3-|
|-----------------|
|-----------------| X8
|-----------------|
|-----------------|

Then it goes:
|------------|
|------------|
|------------|
|-2----------|
|-2-let ring-|
|-0----------|


Gtr 1:                  |            repeat this part until end             |
|-----------------------|---------------------------------------------------|
|-----------------------|---------------------------------------------------|
|-----------------9-----|-----9-----9-----9-----9-----9-----9---------9-----|
|->>>>>>>>-10-9---9-9---|-----9-----9-----9-----9-----9-----9--10-9---9-9---|
|->>>>>>>>-10-9---7-9---|-7-7-7-7-7-7-7-7-7-7-7-7-7-7-7-7-7-7--10-9---7-9---|
|->>>>>>>>--8-7-0---7-0-|---------------------------------------8-7-0---7-0-|
                          x-x   x-x   x-x   x-x   x-x   x-x

Gtr 2 comes in with:
|-----------------------------------|---------------------------------|
|-----------------------------------|---------------------------------|
|-------12-------12-------12--12-11-|-------12-------12---------9-----|
|-------12-------12-------12--12-11-|-------12-------1---10-9---9-9---|
|-10-10-10-10-10-10-10-10-10--10--9-|-10-10-10-10-10-10--10-9---7-9---|
|-----------------------------------|---------------------8-7-0---7-0-|
   x--x     x--x                       x--x     x--x

Gtr 1 & 2 carry on with these riffs till the end of the song.

End on:
|---|
|---|
|---|
|-2-|
|-2-|
|-0-|

A real kick ass song!
Добавлено: 23.09.2013
Другие материалы по этой песне:
  • Аккорды и текст

Страница создана 23.09.2013
http://primanota.ru/sum-41/grab-devil-by-horns-and-fuck-him-up-ass-chords.htm
Привет, Гость.
Предлагаем пройти революционный курс по гитаре.
Подарок от PrimaNota.Ru, забирай!