PrimaNota.ru - самый крупный в мире бесплатный архив песенных текстов, аккордов, табулатур и нот


Subway To Sally - Abgesang - текст песни, таба, видео

Регистрация Запомнить меня
Войти через:  Facebook Google Twitter Vk Yandex Mail.ru

Subway To Sally - Abgesang - текст песни, таба, видео

Печатать
Просмотров: 99
Авторы музыки: Ingo Hampf, Michael Boden
Авторы текста: Michael Boden


      part 1                                   part 2a
e|--------------------------------------|---------------11-9----8---------|
h|----11-11------11-10------8-8--7------|----11-11-----------10---11-11---|
g|--7-------7-8--------8--7-----------8-|--7-------7-8--------------------|
d|---------------------------------10---|---------------------------------|
a|--------------------------------------|---------------------------------|
E|--------------------------------------|---------------------------------|
  
                            repeat part 1
e|-----------------------|---------------|--------------------------------|
h|-10-8h10p8-------------|---------------|--------------------------------|
g|-----------10-8h10p8-7-|---------------|--------------------------------|
d|-----------------------|---------------|--------------------------------|
a|-----------------------|---------------|--------------------------------|
E|-----------------------|---------------|--------------------------------|

   part 2b
|-----------10-8----------------------------------------------------------|
|----11-11-------11-10-8---7-10---10---10----10---10----10----------------|
|--7----------------------------8----7---------------------7h8p7h8p7h8p7h8p7-|
|-----------------------------------------10----8----10-------------------|
|-------------------------------------------------------------------------|
|-------------------------------------------------------------------------|

Добавлено: 07.02.2014
Другие материалы по этой песне:

Страница создана 27.03.2012
http://primanota.ru/subway-to-sally/abgesang-chords.htm
Привет, Гость.
Предлагаем пройти революционный курс по гитаре.
Подарок от PrimaNota.Ru, забирай!