PrimaNota.ru - самый крупный в мире бесплатный архив песенных текстов, аккордов, табулатур и нот


Subway To Sally - Maria - текст песни, таба, видео

Регистрация Запомнить меня
Войти через:  Facebook Google Twitter Vk Yandex Mail.ru

Subway To Sally - Maria - текст песни, таба, видео

Печатать
Просмотров: 130
Авторы музыки: Ingo Hampf
Авторы текста: Michael Boden
NOTE:
I think most of you will be German. To make it easier for you and me, the
following comments are written in German.

Interpret:  SUBWAY TO SALLY
Titel:      MARIA
Album:      FOPPT DEN DÄMON

Text: Bodenski / Musik: Ingo Hampf

Bemerkungen zur Spieltechnik
""""""""""""""""""""""""""""
Intro
"""""
Das Intro setzt sich aus zwei Teilen zusammen
Teil1:  Flageolett-Technik
        Dabei wird der gestreckte Zeigefinger der rechten Hand (es wird
        angenommen du spielst rechtshändig Gitarre) locker auf alle
Saiten
        gelegt, und zwar direkt über dem 11. Bundstäbchen, jedoch ohne
        dieses zu berühren. Mit dem Zeigefinger der linken Hand wird im
        4. Bund Barré gegriffen. Alle Töne werden nun mit den restlichen
        Fingern der linken Hand ausschließlich durch hammer on und pull
        off erzeugt Um diese Töne hörbar zu machen muß der Gain-Regler
        deines Verstärkers schon ordentlich aufgedreht sein. Ingo regelt
        am Ende dieser Einleitung die Lautstärke an seiner Gitarre
zurück.
        Bei den etwas lauteren Passagen "zerrt" es daher schon ein wenig.

Teil2:  Zupftechnik
        Dieser Teil sollte so wie der Rest des Songs mit dem Plektrum und
        den restlichen Fingern, größtenteils als Arpeggios gezupft
werden.
        Es ist aber auch möglich das gesamte Stück ohne Plektrum zu
        spielen.

Outro
"""""
Hier tauchen ebenfalls wieder Flageoletts auf, und zwar getappte (gibt es
dieses Wort?) Obertöne. Erzeugt werden diese durch ein kräftiges sehr
kurzes Aufschlagen der Saite mit  direkt auf das Bundstäbchen. Die erste
Zahl in der Tabulatur kennzeichnet die Stelle an der die Saite mit der
linken Hand gegriffen wird, die Zahl in den eckigen Klammern gibt an auf
welches Bundstäbchen mit dem Finger der rechten Hand geklopft wird.

Rest
""""
Unter Umständen (beim benutzen eines Plektrums) wird der Einsatz des
kleinen Fingers der rechten hand notwendig, was vielleicht etwas
gewöhnungsbedürftig sein kann.

Die Rhythmik läßt sich bei einerASCII-Tabulatur ja nur recht mühsam
notieren. nicht zuletzt deshalb habe ich auch darauf verzichtet,
außerdem ist das Stück größtenteils ohne festes Metrum gespielt.
Ich hoffe daher, daß wenigstens die Taktstriche einigermaßen stimmen.
G wie ich das sehe wechseln sich innerhalb des Songs 4/4 und 5/4 Takt
des öfteren ab. Wenn Du das anders siehst dann vergiß meine
Taktangaben, aber für 95% der Noten lege ich meine Hand ins Feuer.
Das gilt besonders für das Flageolett-Intro, welches ich praktisch mit
der
Lupe (oder besser mit dem Stethoskop) herausgesucht habe. Das stimmt
100pro, bis auf den 3. pull off im 4. Takt (ich hab's am unteren Rand mit
einem ^ markiert), den gibt's im Original nicht und ich wage einmal die
Blasphemie, zu behaupten: da hat der Ingo "unsauber" gespielt. Der wahre,
gläubige Jünger läßt diese Note natürlich aus ;-). Nun muß sich nur noch
jemand finden der den Unterschied auch hört.

Um das Stück einigermaßen authentisch zu spielen und die Feinheiten in
der
Spielweise zu erkennen, welche sich hier nicht notieren ließen, kommt man
nicht umhin es sich wieder und wieder anzuhören.
 

Zeichenerklärung:
"""""""""""""""""
Verschieden Leute verwenden die unterschiedlichsten Zeichen. Hier also
meine die eigentlich auch sonst gebräuchlich sind
~    Vibrato
/    slide up
\    slide down
p    pull off
h    hammer on
T    tapping
P.M. palm mute strings (mit rechtem Handballen Saiten abdämpfen)
 5>  Flageolett (Oberton)
A.H. artificial harmonic (z.B im Zusammenhang mit  5>: Saite im 5. Bund
                         gedrückt und Oberton mit dem Plektrum erzeugt)
N.H. natural harmonics   (z.B im Zusammenhang mit  5>: Saite über dem
                         5. Bundstab leicht berühren und Saite
anschlagen)
(5)  Note wird an dieser Stelle nicht angeschlagen sollte aber ausgehend
     von einem vorangegangenen Anschlag hier noch weiterklingen
X    perkussiver Anschlag (linke Hand dämpft die Saiten ab)
 

Genug der Worte, jetzt wird gespielt!!!
 

Flageolett-Intro (Teil1)
""""""""""""""""""""""""
   h p h p h p h p h p h p h p h p    h p h p h p h p h p h p h p h p
e-----------------------------------|-------------------------------------|
H--^7^4^6^4----^5^4--------^5^4^6^4-|-----^5^4--------^7^4^6^4----^5^4----|
G----------^7^4----^6^4^5^4---------|-^7^4----^6^4^5^4--------^7^4--------|
D-----------------------------------|-------------------------------------|
A-----------------------------------|-------------------------------------|
E-----------------------------------|-------------------------------------|
   h p h p h p h p h p h p h p h p    h p h p h p h p h p h p h p h p
e-----------------------------------|-------------------------------------|
H-----------------------------------|-------------------------------------|
G--^6^4^5^4^7^4^6^4----^5^4---------|-------------------------------------|
D------------------^7^4----^6^4-----|-^7^4^6^4----^5^4--------------------|
A------------------------------^5^4-|---------^7^4----^6^4^5^4^7^4^6^4----|
E-----------------------------------|-------------------------------------|
   h p h p h p h p                               ^
e-----------------------------------|
H-----------------------------------|
G-----------------------------------|
D-----------------------------------|
A------^5^4-------------------------|
E--^7^4----^6^4^5^4-----------------|

Intro Teil2
"""""""""""
         p                      p      h p   h           h
e-------------------|--4--------------4-----------|-----------------------|
H-------------------|--4----7--5^4----4^5^4--(4)--|-----4^5--4--(4)-(4)---|
G-----8-9^6---------|--4---(4)--(4)---6-----4^6---|-----4----4--(4)-(4)---|
D---7--------6------|--4---(4)--(4)---6------(6)--|----------4------------|
A--------------9\7--|--6--------------------------|-0--------0---7---6----|
E-------------------|-----------------------------|---------------------5-|

                                                               p
e--4(4)---------------0------0------0-------0-----0------0----0-----------|
H--4(4)-----4/7-----7------7------7-------7------7------7-----7-----------|
G--6^5---5--------------------------------------5----- 6------8^5---------|
D--4(4)-------------------------6-------7---------------------------------|
A--6(6)-----------6------9------------------------------------------------|
E--4(4)-------------------------------------------------------------------|
           Hier wußte ich einfach nicht wo ich den Taktstrich setzen
sollte

   |... P.M. ..|   h p h p p p  ~~      h        h     h      h
e-----------------------------------|-----------4(4)--4(4)---5^7----------|
H-----------------------------------|--2--------4^5---4(4)----(4)---------|
G-----------------------------------|--2^4------4(4)--4^6-----(6)---------|
D--7-6-4----------------------------|--2^4------------4(4)----------------|
A---------7-6-4---3^4^3^6^4^3^0-----|--0(0)-------------------------------|
E-------------------------------4---|-------------------------------------|
 
 

e--9----7----4----2----|--------4--------------|
H----9----7----4----2--|--4-----4--------------|
G----------------------|----4---6--------------|
D----------------------|--------6--------------|
A--7----6----4----0----|--2-----6--------------|
E----------------------|--------4--------------|

1.Strophe
"""""""""                 h                                  h   h
e------0----4\2--------|-------------|-----0---4\2--------|---------------|
H--4-----4--4\2--4-----|------4------|-4-----4-4\2--4-----|-----4^5-------|
G----6------4\2--4--4/6|-4^6--4-4-6--|---6-----4\2--4--4/6|-4^6-4---6-----|
D------6---------4--4/6|-4^6----4-6--|-----6--------4--4/6|-4^6-4---6----6|
A--0-------------0-----|----------6--|-0------------0-----|---------4-4---|
E----------------------|----------4--|--------------------|---------------|

                         h                              h    p     h
e-----0----4\2--------|--------------|-----0---4/7--7-----|---------------|
H-4-----4--4\2--4-----|------4-------|-4-----4-4/7--7--4^5|-5^4---4^5-----|
G---6------4\2--4--4/6|-4^6--4-4-6---|---6----------4--4--|-4---6-4---6---|
D-----6---------4--4/6|-4^6----4-6--6|-----6--------4-----|-----6-----6---|
A-0-------------0-----|----------6---|-0------------------|-----------4-4-|
E---------------------|----------4---|--------------------|---------------|

Refrain(1)
""""""""""
e--4--9------7------|(7)--4-----|--2/4--2-------2--------|----------------|
H--4----9------7----|(7)--4-----|--2/4--2---2---2---4----|----------------|
G--4------6------6--|(6)--6-----|-----------2--(2)--4----|--4--4---4/6--6-|
D--4----------------|-----6-----|-----------2--(2)--4----|--4--4---4/6--6-|
A-----7------6------|(6)--4-----|-----------0--(0)-----2-|-(2)(2)--2/4--6-|
E-------------------|-7---------|------------------------|--------------4-|

e--4--9------7------|(7)--4-----|--2/4--2-------2--------|----------------|
H--4----9------7----|(7)--4-----|--2/4--2---2---2---4----|----------------|
G--4------6------6--|(6)--6-----|-----------2--(2)--4----|--4--4---4/6--6-|
D--4----------------|-----6-----|-----------2--(2)--4----|--4--4---4/6--6-|
A-----7------6------|(6)--4-----|-----------0--(0)-----2-|-(2)(2)--2/4--4-|
E-------------------|-7---------|------------------------|----------------|

2.Strophe
"""""""""                h                                   h    h
e-----0----4\2--------|--------------|-----0---4\2--------|---------------|
H-4-----4--4\2--4-----|------4-------|-4-----4-4\2--4-----|------4^5------|
G---6------4\2--4--4/6|-4^6--4---6---|---6-----4\2--4--4/6|-4^6--4---6----|
D-----6---------4--4/6|-4^6----4-6--6|-----6--------4--4/6|-4^6------6---6|
A-0-------------0-----|----------6---|-0------------0-----|----------4-4--|
E---------------------|----------4---|--------------------|---------------|

                       h                           h    p     h
e-----0---4\2-------|------------|-----0---4/7--7----|---------------X-X--|
H-4-----4-4\2--4----|-----4------|-4-----4-4/7--7-4^5|-5^4---4^5-----X-X--|
G---6-----4\2--4-4/6|-4^6-4---6--|---6----------4-4--|-4---6-4---6---X-X-X|
D-----6--------4-4/6|-4^6---4-6-6|-----6--------4----|-----6-4---6---X---X|
A-0------------0----|---------6--|-0-----------------|-----------4-4------|
E-------------------|---------4--|-------------------|--------------------|

Refrain(2)
""""""""""
e--4--9------7------|(7)--4-----|---4---2------2--------|-----------------|
H--4----9------7----|(7)--4-----|---4---2--2---2---4----|-----------------|
G--4------6------6--|(6)--6-----|----------2--(2)--4----|--4--4---4/6--6--|
D--4----------------|-----6-----|----------2--(2)--4----|--4--4---4/6--6--|
A-----7------6------|(6)--4-----|----------0--(0)-----2-|-(2)(2)-------6--|
E-------------------|-7---------|-----------------------|--------------4--|

e--4--9------7------|(7)--4-----|--2/4--2------2--------|-----------------|
H--4----9------7----|(7)--4-----|--2/4--2--2---2---4----|-----------------|
G--4------6------6--|(6)--6-----|----------2--(2)--4----|--4--4---4/6--6--|
D--4----------------|-----6-----|----------2--(2)--4--4-|--4--4---4/6--6--|
A-----7------6------|(6)--4-----|----------0--(0)-----2-|--2-(2)--2/4--4--|
E-------------------|-7---------|-----------------------|-----------------|

Outro
"""""
                          N.H.                         h p
e--4---9---7--|---4---------------|---0---2----4/7----7-------(7)---------|
H--4---9---7--|---4---------------|---2---------------7-------(7)---------|
G--4---6---6--|---6---------------|---2---------------4^6^4---------------|
D--4----------|---6---6--- 4>-----|---2---------------------6-(6)---------|
A------7---6--|---4---------------|---0------------------------6----------|
E-------------|-------------------|---------------------------------------|

                                           T     T     T     T      T
e-9-----7-----4-----2----------------|--------------------4 16>--0 19>--9-|
H---9-----7-----4-----2--4---------4-|--------4 16>---------------------9-|
G---------------------------4-/-6--6-|--------------6 18>---------------6-|
D----------------------------------6-|--6 18>---------------------------6-|
A-7-----6-----4-----0----2-(2)/-4--4-|------------------------------------|
E------------------------------------|------------------------------------|
 
 
 

     
Добавлено: 23.06.2013
Другие материалы по этой песне:

Страница создана 28.06.2012
http://primanota.ru/subway-to-sally/maria-chords.htm
Привет, Гость.
Предлагаем пройти революционный курс по гитаре.
Подарок от PrimaNota.Ru, забирай!