PrimaNota.ru - самый крупный в мире бесплатный архив песенных текстов, аккордов, табулатур и нот


Strokes - When It Started - аккорды и текст, бас-таба, видео

Регистрация Запомнить меня
Войти через:  Facebook Google Twitter Vk Yandex Mail.ru

Strokes - When It Started - аккорды и текст, бас-таба, видео

Печатать
Просмотров: 200
Уроки эстрадного вокала в Санкт-Петербурге
Авторы музыки: Julian Casablancas

When It Started
Strokes
e-------------------------------
b-------------------------------
g-------------------------------
d-------------------------------
a---------10-10-------10-10-----
E-8-8-8-8------8-8-8-8----------


C     
Won't decide, but he won't debate
Said, "Thanks my friend," but he was too late
    Dm
Oh why, oh why
 G
I don't know

         C
So you think things move pretty fast down here
Well just wait my dear 'till you look up there
Dm          G
Oh maybe someday you'll know

C
Had his second kid, was an early night
Got to be well dressed 'cause he hates to fly
Dm              G
Oh loves his job, takes it home

    F          G
Anything they wanted
 F     G     F   Dm   F   Dm
They could have it, have it
           F    G
Didn't even notice
F    G   F   Dm   F   Dm
I don't mind it, mind it

e-14-12-10-|---------|-17-15-13--19-13-12-10-|-8-13-12-10---------|-12-10-9---------|-17-15-13-|
b--x--x--x-|-12-10-8-|--x--x--x--x---x--x--x-|-x--x-x--x--12-10-8-|-x--x--x-12-10-9-|--x-x-----|
g-13-12-10-|-x--x--x-|-17-15-14--19-14-12-10-|-9-14-12-10-x--x--x-|-12-10-8--x-x--x-|-17-16-14-|
d----------|-12-10-9-|-----------------------|------------12-10-9-|---------12-10-8-|----------|
a----------|---------|-----------------------}--------------------|-----------------|----------|
E----------|---------|-----------------------|--------------------|-----------------|----------|

C
Won't decide, but he won't debate
Said, "Thanks my friend, thought that we was dead"
Dm
Oh why, oh why
G
I don't know

C
Think things move pretty fast down here
But just wait my dear 'till we get up there
Dm                G
Oh maybe someday they'll know

               F      G    F   G
Come on tell me does she warm the room
 F    Dm   F  Dm
When he comes
                 F   G     F    G
Or does he just know how to leave
F   Dm    F   Dm
When it gets cold
C 
Well I don't care, I don't care
'Cause it's free
Добавлено: 09.03.2016
Другие материалы по этой песне:

Страница создана 25.03.2012
http://primanota.ru/strokes/when-it-started-chords.htm
Привет, Гость.
Предлагаем пройти революционный курс по гитаре.
Подарок от PrimaNota.Ru, забирай!