PrimaNota.ru - самый крупный в мире бесплатный архив песенных текстов, аккордов, табулатур и нот


Stranglers - Queen of the street - бас-таба, видео

Регистрация Запомнить меня
Войти через:  Facebook Google Twitter Vk Yandex Mail.ru

Stranglers - Queen of the street - бас-таба, видео

Печатать
Просмотров: 90


the stranglers

queen of the street


e:--------------------------------------63-3-3-3-3-3-3-2-1-1-1-1-1-1-1-2-3-3-3-3-3-3-3-2-1-1-1-1-1-:
a:-----------------------------------543-----------------------------------------------------------:
d:-----------------1211108-5-55----53--------------------------------------------------------------:
g:-1212121212121210------------6-53----------------------------------------------------------------:

e:-----3-3--------31-1-1-1-1-----3-3--------31-1-1-1-1-1-1-2-:
a:----------543100--------------------543100-----------------:
d:-03-----53-----------------03-----53-----------------------:
g:---03------------------------03----------------------------:

e:-3-3-3-3-3-3-3-2-1-1-1-1-1-1-1-2-:
a:---------------------------------:
d:---------------------------------:
g:---------------------------------:
                                     x3

e:-3-3-3-3-5-5-5-5-----------------:
a:-----------------6-6-6-6---------:
d:-------------------------3-3-3-3-:
g:---------------------------------:

e:-3-3-3-3-3-3-3-2-1-1-1-1-1-1-1-2-:
a:---------------------------------:
d:---------------------------------:
g:---------------------------------:
                                     x3

e:-3-3-3-3-5-5-5-5-----------------:
a:-----------------6-6-6-6---------:
d:-------------------------3-3-3-3-:
g:---------------------------------:

e:--------------------111111---------------:
a:-3333333111111000000------111111000000-0-:
d:-----------------------------------------:
g:-----------------------------------------:
                                             x2

e:--------------:
a:-5-53-31-10-0-:
d:--------------:
g:--------------:

e:-----------------------------:
a:---------------3-33-3-1-11-1-:
d:-5-55-5-3-33-3---------------:
g:-----------------------------:
                                 x2

e:---------------------------:
a:---------------3-33-3-1-11-:
d:-5-55-5-3-33-3-------------:
g:---------------------------:

e:-13-13-13-13-13-13-13-:
a:----------------------:
d:----------------------:
g:----------------------:

e:-3-3-3-3-3-3-3-2-1-1-1-1-1-1-1-2-:
a:---------------------------------:
d:---------------------------------:
g:---------------------------------:
                                     x3

e:-3-3-3-3-5-5-5-5-----------------3-3--------31-1-1-1-1-:
a:-----------------6-6-6-6--------------543100-----------:
d:-------------------------3-3-3-3----53-----------------:
g:-------------------------------------------------------:

e:-----3-3--------31-1-1-1-1-:
a:----------543100-----------:
d:-03-----53-----------------:
g:---03----------------------:
                               x3

e:-1-1-2-3-3-3-3-3-3-3-1-1-1-1-1-1-1-2-:
a:-------------------------------------:
d:-------------------------------------:
g:-------------------------------------:

e:-3-3-3-3-3-3-3-2-1-1-1-1-1-1-1-2-:
a:---------------------------------:
d:---------------------------------:
g:---------------------------------:

e:-3-3-3-3-5-5-5-5-----------------:
a:-----------------6-6-6-6---------:
d:-------------------------3-3-3-3-:
g:---------------------------------:

e:----------------------1111111-----------------:
a:-333333311111110000000-------11111110000000-0-:
d:----------------------------------------------:
g:----------------------------------------------:
                                                 x2

e:--------------:
a:-5-53-31-10-0-:
d:--------------:
g:--------------:

e:-----------------------------:
a:---------------3-33-3-1-11-1-:
d:-5-55-5-3-33-3---------------:
g:-----------------------------:
                                 x2

e:---------------------------13-13-13-13-13-13-13-:
a:---------------3-33-3-1-11----------------------:
d:-5-55-5-3-33-3----------------------------------:
g:------------------------------------------------:



Добавлено: 21.09.2013
Другие материалы по этой песне:
  • Аккорды и текст

Страница создана 21.09.2013
http://primanota.ru/stranglers/queen-of-the-street-chords.htm
Привет, Гость.
Предлагаем пройти революционный курс по гитаре.
Подарок от PrimaNota.Ru, забирай!