PrimaNota.ru - самый крупный в мире бесплатный архив песенных текстов, аккордов, табулатур и нот


Stone Temple Pilots - First Kiss On Mars - текст песни, таба, видео

Регистрация Запомнить меня
Войти через:  Facebook Google Twitter Vk Yandex Mail.ru

Stone Temple Pilots - First Kiss On Mars - текст песни, таба, видео

Печатать
Просмотров: 138
Stone Temple Pilots - First Kiss on Mars
Open G tuning - Electric & 2 Acoustics
Tabbed by jjhand

A very cool Acoustic based tune! Nice solo too. Please Rate/Comment!


Intro - Clean Electric,  play 2x similarly
 
d|--------------------------|----------------------|
B|--------------------------|----------------------|
G|-----------------------0--|-(0)------------------|
D|-4b5r4--2--0-----------0--|-(0)------------------|
G|-0------0--0--4--2--0-----|----------------------|
D|--------------------------|----------------------|

d|--------------------------|----------------------|
B|--------------------------|----------------------|
G|-----------------------0--|-(0)------------------|
D|-4b5r4--2--0--5p4--0---0--|-(0)------------------|
G|-0------0--0--------------|----------------------|
D|--------------------------|----------------------|


Acoustic part during intro
d|--------------------------|-------12-12----12----|
B|--------------------------|-------12-12----12----|
G|-----------------------12-|-(12)--12-12----12----|
D|-----------------------12-|-(12)-----------------|
G|-0------0--0--0-----0-----|----------------------|
D|--------------------------|----------------------|






Verse pt 1- played 2x
|-0----0--------0----|-0----0------0--0--0--|
|-5----5--------5----|-0----0------0--0--0--|
|-0----0--------0----|-0----0------0--0--0--|
|-5----5--------5----|-5----5------5--5--5--|
|--------------------|----------------------|
|--------------------|----------------------|

"Take a risk and listen to the radio"
"Click your heels at the Bi-polar disco"



Verse Pt 2-
|---------------------|--------------------------|
|-10/12--12-----12-12-|-10----10----10-10-10-10--|
|-0------0------0--0--|--0-----0-----0--0--0--0--|
|-10/12--12-----12-12-|-10----10----10-10-10-10--|
|---------------------|--------------------------|
|---------------------|--------------------------|

"Fly down the villa destination sign"
"Everybody feels the days but waits for summer nights"




Play Verse Pt 1 with Electric Guitar Part (played 2x):
d|----------------------|--------------------------|
B|----------------------|--------------------------|
G|----------------------|--------------------------|
D|----------------------|--------------------------|
G|-0---------2----------|-4-----------5------------|
D|----------------------|--------------------------|
Lyrics: "Boy meets Girl
         They might drive-in modern love"



Verse ending - play 2x

  Acoustic
|-0----0----0--0------|-0---0-0----0--0--0--0--|
|-0----0----0--0------|-1---1-1----1--1--1--1--|
|-0----0----0--0------|-0---0-0----0--0--0--0--|
|-0----0----0--0------|-2---2-2----2--2--2--2--|
|-0----0----0--0------|-0---0-0----0--0--0--0--|
|---------------------|------------------------|
|
| Electric (play low G on 2nd time through)
|---------------------|------------------------|
|---------------------|------------------------|
|---------------------|------------------------|
|-0-------------------|-(0)--------------------|
|-0-------------------|------------2h4---2p0---|
|---------------------|------------------------|





Prechorus (2 acosutics written for 1)

|-0----0----0--0------|------------------------|
|-0----0----0--0------|-0---0-0----0--0--0--0--|
|-0----0----0--0------|-2---2-2----2--2--2--2--|
|-0----0----0--0------|-3---3-3----3--3--3--3--|
|-0----0----0--0------|-0---0-0----0--0--0--0--|
|---------------------|------------------------|
 "Can   we    really    find"



play this line 2x (2 Acoustics)

|-9----9----9--9-----|-7---7-7----7--7--7--7--|
|-5----5----5--5-----|-5---5-5----5--5--5--5--|
|-5----5----5--5-----|-5---5-5----5--5--5--5--|
|-5----5----5--5-----|-5---5-5----5--5--5--5--|
|-5----5----5--5-----|-5---5-5----5--5--5--5--|
|--------------------|------------------------|
 "Love, The magic place we dream of"
 "Super      magic     robots set the"



|-0----0----0--0------|-0---0-0------0--0--0--|
|-0----0----0--0------|-1---1-1------1--1--1--|
|-0----0----0--0------|-0---0-2------0--2--0--|
|-0----0----0--0------|-2---2-2------2--2--2--|
|-0----0----0--0------|-0---0-0------0--0--0--|
|---------------------|-----------------------|
 "solar                system                free"







Chorus - Play Intro again, with variation at the end

"Reel over, reel over and over" 2x






Repeat verse again - same lyrics

Repeat Chorus 






Solo - Electric w/ overdrive
d|------------------12----|-----------------------|-17---------------------|
B|----12---------12----12-|-12~----------------17-|-----17-15--------------|
G|-14---14p12-14----------|-------14-12-14/16-----|------------16\14-16-14\|
D|------------------------|-----------------------|------------------------|
G|------------------------|-----------------------|------------------------|
D|------------------------|-----------------------|------------------------|

|------------------------------|---------17----16--19------|
|------------------------------|-15--17--------------------|
|-12---------14b16r14-12-14/16-|-----------------------19--|
|-----/12-14-------------------|---------------------------|
|------------------------------|---------------------------|
|------------------------------|---------------------------|

|-----17------------19--21b22r21--|-(21)---19-----|-19-21~--------|
|-17------------20----------------|-----------20--|---------------|
|---------------------------------|---------------|---------------|
|---------19----------------------|---------------|---------------|
|---------------------------------|---------------|---------------|
|---------------------------------|---------------|---------------|


Ending - Start playing final chorus during last 2 bars of Solo






KEY
| /  slide up
| \  slide down
| h  hammer-on
| p  pull-off
| b  bend note
| r  release bend
| ~  vibrato
| x  Mute note
Добавлено: 10.04.2012
Другие материалы по этой песне:

Страница создана 10.04.2012
http://primanota.ru/stone-temple-pilots/first-kiss-on-mars-chords.htm
Привет, Гость.
Предлагаем пройти революционный курс по гитаре.
Подарок от PrimaNota.Ru, забирай!