PrimaNota.ru - самый крупный в мире бесплатный архив песенных текстов, аккордов, табулатур и нот


Stone Temple Pilots - Glide - текст песни, таба, видео

Регистрация Запомнить меня
Войти через:  Facebook Google Twitter Vk Yandex Mail.ru

Stone Temple Pilots - Glide - текст песни, таба, видео

Печатать
Просмотров: 146
Авторы музыки: Robert DeLeo
Авторы текста: Scott Weiland
SONG: Glide
ARTIST: Stone Temple Pilots
ALBUM: No. 4

There are quite a few different parts to this song, so I added the time on
the CD when the part appears next to it. Tabbed by Ryan Liddell.

INTRO (0:00)

E|-0-0--0-0-0-0-0--0-0-0-0-0--0-0-0--0-0-0-0-0--0-0-0--0-0-0-0-0--0-0-0--|
B|-2-2--2-2-2-2-2--2-2-2-2-2--2-2-2--2-2-2-2-2--2-2-2--2-2-2-2-2--2-2-2--|
G|-0-2--2-2-0-0-0--2-0-2-2-2--0-0-0--2-0-2-2-2--0-0-0--2-0-2-2-2--0-0-0--|
D|-2-2--2-2-2-2-2--2-2-2-2-2--2-2-2--2-2-2-2-2--2-2-2--2-2-2-2-2--2-2-2--|
A|-0-0--0-0-0-0-0--0-0-0-0-0--0-0-0--0-0-0-0-0--0-0-0--0-0-0-0-0--0-0-0--|
E|-----------------------------------------------------------------------|

VERSE (0:08, 1:13, 2:41)

E|-------------------------|
B|-5--5--0--0--3--3--------|
G|-6--6--1--1--4--4--2--2--|
D|-7--7--2--2--5--5--4--4--|
A|-0--0--0--0--0--0--0--0--|
E|-------------------------|

CHORUS (0:51, 1:43)

E|-------------------------------------------------|
B|-------------------------3--3--3--3--3--3--3--3--|
G|-------------0--0--0--0--2--2--2--2--2--2--2--2--|  X 2
D|-3--3--3--3--2--2--2--2--0--0--0--0--0--0--0--0--|
A|-3--3--3--3--3--3--3--3--------------------------|
E|-1--1--1--1--------------------------------------|

Then...

E|-------------------------3--3-----------|
B|-------------------------3--3--3-3-3-3--|
G|-------------0--0--0--0--0--0--2-2-2-2--|
D|-3--3--3--3--2--2--2--2--0--0--0-0-0-0--|
A|-3--3--3--3--3--3--3--3--2--2--0-0-0-0--|
E|-1--1--1--1--------------3--3--2-2-2-2--|

DIFFERENT VERSE (2:04, 3:37 - last time end on this(*) note)

E|-----------------------------|
B|-0--0--7--7--10--10----------|
G|-1--1--8--8--11--11---9---9--| X 4
D|-2--2--9--9--12--12--11--11--|
A|-0--0--0--0---0---0---0---0--|
E|-----------------------------|

Then...
               *
E|-------------3--3--3--3--------------------------|
B|-------------3--3--3--3--3--3--3--3--3--3--3--3--|
G|-0--0--0--0--0--0--0--0--2--2--2--2--2--2--2--2--|
D|-2--2--2--2--0--0--0--0--0--0--0--0--0--0--0--0--|
A|-3--3--3--3--2--2--2--2--------------------------|
E|-------------3--3--3--3--------------------------|

RIFF 1 (repeated throughout 3rd verse)

E|-5p4h5-|
B|-------|
G|-------|
D|-------|
A|-------|
E|-------|

RIFF 2 (2:47)

E|---------------------------------------------------------------|
B|---------------------------------------------------------------|
G|-9b10--9-------------------------------------------------------|
D|----------11---7--9--7--7--9--11--14~~~---------11b12b11b12~~--|
A|---------------------------------------------------------------|
E|---------------------------------------------------------------|

BRIDGE (2:59, play the root notes with your thumb)

E|-----------------------------------------------------|
B|-------2------------1------------0------------2------| X 2
G|-----2---2--------2---2--------2---2--------2---2----|
D|---2-------2----2-------2----2-------2----2-------2--|
A|----------------------------------------0------------|
E|-3------------2------------1-------------------------|

Then..

E|----------------|
B|-14~----\--10~--|
G|-14~----\--10~--|
D|-14~----\--10~--|
A|-12~----\---8~--|
E|----------------|

OUTRO (4:14,just play around with these chords,other effects in the
background)

E|-0-0-0--0-0-0-0-0--|
B|-2-2-2--3-3-3-3-3--|
G|-0-0-0--0-0-0-0-0--|
D|-2-2-2--2-2-2-2-2--|
A|-0-0-0--0-0-0-0-0--|
E|-------------------|
Добавлено: 17.05.2012
Другие материалы по этой песне:
  • Аккорды и текст

Страница создана 17.05.2012
http://primanota.ru/stone-temple-pilots/glide-chords.htm
Привет, Гость.
Предлагаем пройти революционный курс по гитаре.
Подарок от PrimaNota.Ru, забирай!