PrimaNota.ru - самый крупный в мире бесплатный архив песенных текстов, аккордов, табулатур и нот


Stone Temple Pilots - Lady Picture Show - аккорды и текст, таба, бас-таба, драм-таба, видео

Регистрация Запомнить меня
Войти через:  Facebook Google Twitter Vk Yandex Mail.ru

Stone Temple Pilots - Lady Picture Show - аккорды и текст, таба, бас-таба, драм-таба, видео

Печатать
Просмотров: 209
Уроки эстрадного вокала в Санкт-Петербурге
Авторы музыки: Robert DeLeo
Авторы текста: Scott Weiland
Lady Picture Show
Stone Temple Pilots
		   .LADY PICTURE SHOW by the Stone Temple Pirates
MUSIC-R.DeLEO WORDS-WEILAND
Transcribed by Jason Petrone  petrone@uiuc.edu>


Intro: | E | B | A | A |

E	     B	    A
Lady picture show, she hides behind the bedroom door
Lady picture show she hides behind the bedroom wall
She hides because she don't know nothin', don't know nothin' anymore
She keeps a funny face it's locked and bagged it's just ouside the door

C#- 		     F#-
She doesn't know her name
B		     E
She doesn't know her face
C#-		     F#-
She doesn't know her name
B		     E     B	    A
She doesn't know her face anymore
E	B	A
And don't believe


Lady picture show, se hides behind the bedroom door
Lady picture girl, I think thim boys don't like your show
Lady Picture show them boys are gone,  should just say no
Your wedding present's not so daisy picture perfect anymore
Lady funny face it's locked and bagged it's just outside the door
Don't know nothin' anymore


------------------------
STP is not just a band; it's also a psychedelic drug.  It stands for
"Serenity, Tranquility, and Peace."  Does anyone know if that's where they
got thier band name from?
-------------------------

jason
petrone@uiuc.edu

Lady Picture Show
Stone Temple Pilots



E    E/Eb             A
Lady Picture Show she hides behind the bedroom door.
Lady Picture Show she hides behind the bedroom wall.

E         E/Eb                   A
She hides because she don't know nothing,

A
Don't know nothing anymore.

E   E/Eb                    A
She keeps a funny face it's locked and bagged it's just

A
outside the door.

C#                       F#m
She doesn't know her name

B                        E  E/Eb
She doesn't know her face

C#                       F#m
She doesn't know her name

B                        (E  E/Eb  A)x2
She doesn't know her face



Solo:

e----------------------------------------------------
B------------------s/14-12-14-14-12--10h12r10--9-10-9
G-----------s/13-11----------------------------------
D-------s/11-9---------------------------------------
A---s/9-7--------------------------------------------
E----------------------------------------------------


e---------------------------------12-11-12-9-12---12-11
B-----9------------12----12---------------------12-----
G--11---11-11-9-13----13----13-------------------------
D------------------------------------------------------
A------------------------------------------------------
E------------------------------------------------------


e--12----12-11-12-9-12-----     12-11-12-
B-----12---------------12--     ---------12
G--------------------------
D--------------------------     Repeat this for a few
A--------------------------     measures, play over the
E--------------------------     lyrics


Play over the lyrics
e----------------------------------------------------15b
B------------14-14-12----------12------------------17---
G-s/13-13-13----------13-13-13----13-11---------13------
D---------------------------------------14-s/14---------
A-------------------------------------------------------
E-------------------------------------------------------



E/Eb  E/Eb
e--x--x(12)
B--9-- 12
G--9-- 13
D--9-- 14
A--6-- 14
E--x-- 11

/s this symbol means slide for all you idiots.
Transcribed by Mike Henderson #20, and Joshua Jimenez #5
I don't care if you understand this or not, figure out
the timing for yourself.  Josh figured out the solo.


Lady Picture Show
Stone Temple Pilots
Transcibed by Keith Barron


This is the actual chords for Lady Picture Show
The other ones posted weren't quite right even
though they sounded pretty good.
Verses:

       E  [076400]
Badd4/D#  [X64400]
       A  [X02220]

Intro:

       E  [076400]
Badd4/D#  [X64400]
       A  [X02220]
    D6/9  [X54200]

Chorus:

     C#5  [x46xxx]
     C#7  [x4646x]
     F#5  [x9Exxx]     E is 11
    F#m7  [x9E9Tx]     T is 10
      B5  [x24xxx]
      B7  [x2424x]
E(type2)  [x7999x]
      G#  [466544]

Interlude:

      Av  [X07650]
      A6  [X07670]
   A7M    [X06580]
      E5  [022XXX]
     F#5  [244XXX]
     G#5  [466XXX]
      A5  [577XXX]
   Badd4  [X24400]

Song:

Intro - E  Badd4/D#  A  A
        E  Badd4/D#  D6/9

Verse - E  Badd4/D#  A  A  }
        E  Badd4/D#  A  A  } PLAY TWO TIMES

Chorus - C#5  C#7 C#5    C#7 C#5
          / /  /   / / /  /   /

         F#5  F#m7  F#5   F#7 F#5
          / /  /    / / /  /   /

         B5   B7 B5     B7 B5
          / / /  / / /  /  /
         E(type2)    G#
           /    /    /   / /X
          q    q    q   e s s

         PLAY FIRST SIX BARS OF CHORUS
         AGAIN, THEN PLAY INTRO

         AFTER SECOND CHORUS, PLAY INTRO
         FOR THE "Let them be" PART

Interlude - Av   A6     A7M     A6
            Av   A6     A7M     A6
            E5   E5     E5      E5
            F#5     G#5 A5      A5
            Badd4


After Last Chorus Play:

         E  Badd4/D#  A  A
         E  Badd4/D#  A  A
         E  Badd4/D#  A  A
         E  Badd4/D#  D6/9

Whew, and that is pretty much it
If you have trouble with the tab
then listen to the song.  If you
still have trouble with it then
e-mail me:  ponies2@computek.net>     
Добавлено: 29.06.2013
Другие материалы по этой песне:

Страница создана 03.03.2012
http://primanota.ru/stone-temple-pilots/lady-picture-show-chords.htm
Привет, Гость.
Предлагаем пройти революционный курс по гитаре.
Подарок от PrimaNota.Ru, забирай!