PrimaNota.ru - самый крупный в мире бесплатный архив песенных текстов, аккордов, табулатур и нот


Stone Temple Pilots - Cry Cry - таба, видео

Регистрация Запомнить меня
Войти через:  Facebook Google Twitter Vk Yandex Mail.ru

Stone Temple Pilots - Cry Cry - таба, видео

Печатать
Просмотров: 119
Stone Temple Pilots - Cry Cry
From the "High Rise" EP
Tabbed by: jjhand
Drop-D Tuning

This song has a simple Verse riff but an awesome solo. Please Rate or Comment.

Riff 1 - Guitar 1
e|------||------------------||
B|------||------------------||
G|------||------------------||
D|------||---------3--------||
A|-0--3-||-5~----------0--3-||
D|------||------------------||
           ^ repeat this but note that some bends and 
             pre-bends are done on the 5th fret note



Riff 2 (0:32) play 4x
   Guitar 1 
e|-------------------|
B|-------------------|
G|-------------------|
D|-------------------|
A|-5-------8---------|
D|-5-------8---0--3--|
 |
 | Guitar 2
e|----------0--------|
B|-----6-------------| let ring slightly
G|-5/7---7-----------| 
D|-------------------|
A|-------------------|
D|-------------------|


Play Main Riff Again


Prechorus

   Guitar 1
e|---------------|--------------|-----------------|-----------------|
B|---------------|--------------|-----------------|-----------------|
G|---------------|--------------|-----------------|-----------------|
D|---------------|--------------|-----------------|-----------------|
A|-1-------------|-(1)----------|-----------------|-----------------|
D|---------------|--------------|-5---------------|-(5)-------------|
 |
 | Guitar 2
e|---------------|--------------|-----------------|-----------------|
B|---------------|--------------|-----------------|-----------------|
G|-2----------/5-|-5-2----------|---------2-------|-2-------2-------|
D|---------------|--------------|-3/5-------3-----|-----0-------0---|
A|---------------|--------------|-----------------|-----------------|
D|---------------|--------------|-----------------|-----------------|




Chorus - Guitar 1 & 2
e|--------------------|-----------------|-----------------|----------------|
B|-7-5-7---/10-10-----|-----------------|----------6~-6---|----------------|
G|-7-5-7---/11-11-----|-----------------|-7--5--7---------|----------------|
D|------------------0-|---0-0-0-0-0-0-0-|-----------------|----------------|
A|------------------8-|---8-8-8-8-8-8-8-|-----------------|-5-5-5-5-5-5-5--|
D|------------------8-|---8-8-8-8-8-8-8-|-----------------|-5-5-5-5-5-5-5--|

  Chorus Riff End
e|-------------------|
B|-------------------|
G|-------------------| 
D|-------------------|
A|-5\3-3-3----3-3----|
D|-5\3-3-3----3-3----|

Repeat the 5 Chorus bars



Play Verse Again 

Play Chorus Again



Solo
e|----10~------------|-------------------|------------------------------------|
B|---------13~--12~--|-------10----------|------------------------------------|
G|-------------------|-12b14----10qb-----|-14h12h10-12-12-----10-10-----------|
D|-------------------|---------------12~~|---------------12p10-----12p10---10-|
A|-------------------|-------------------|------------------------------/12---|
D|-------------------|-------------------|------------------------------------|

e|-------------------|-----------------------13b15---b15-13---------|
B|-------------------|-13--15--13---12\10----|---------------15-13--|
G|----------------10-|---10--10--10-------12~|----------------------|
D|-------0--10~~~~---|-----------------------|----------------------|
A|-10\8--------------|-----------------------|----------------------|
D|-------------------|-----------------------|----------------------|

e|--------10p8-----8----------------|-----------------------|
B|-13b15------10p8---8h10p8-6---8p6-|-----------------15b18-|
G|----------------------------7-----|-7-5-7~~~~~~~\---------|
D|----------------------------------|-----------------------|
A|----------------------------------|-----------------------|
D|----------------------------------|-----------------------|

e|------------------------------|----------------12-13-15-17~--|
B|-(b18)-15-13-12-13------------|--------12-13-15--------------|
G|------------------14-12-14~---|---12-14----------------------|
D|------------------------------|------------------------------|
A|------------------------------|------------------------------|
D|------------------------------|------------------------------|

e|----15-17-------15-13-----|----------------------------------|-----------
B|---------17b18-------15~--|---17b18--17b18--17br18-15--18b20-|-18-15~~~--
G|--------------------------|----------------------------------|-----------
D|--------------------------|----------------------------------|-----------
A|--------------------------|----------------------------------|-----------
D|--------------------------|----------------------------------|-----------

Solo Rhythm Guitar - First note starts on end of chorus, play full bar 8x
e|---||--------------------||
B|---||--------------------||
G|---||--------4-2---------||
D|---||--------0-0---------||
A|-0-||-0----------------0-||
D|-0-||-0----------------0-||

Play Prechorus for last 4 solo bars


At end of Solo, play Full Chorus again 2x to end song (20 bars total)



************************************

| /   slide up
| \   slide down
| h   hammer-on
| p   pull-off
| ~   vibrato
| +   harmonic
| x   Mute note
| b   Bend
| pb  Pre-bend
| br  Bend release
| pbr Pre-bend release
| brb Bend release bend

************************************
Добавлено: 16.04.2015
Вам также может быть интересно:
Другие материалы по этой песне:
  • Аккорды и текст

Страница создана 16.04.2015
http://primanota.ru/stone-temple-pilots/cry-cry-chords.htm
Привет, Гость.
Предлагаем пройти революционный курс по гитаре.
Подарок от PrimaNota.Ru, забирай!