PrimaNota.ru - самый крупный в мире бесплатный архив песенных текстов, аккордов, табулатур и нот


Stone Temple Pilots - No4 Album - таба, видео

Регистрация Запомнить меня
Войти через:  Facebook Google Twitter Vk Yandex Mail.ru

Stone Temple Pilots - No4 Album - таба, видео

Печатать
Просмотров: 65
Author/Artist: Stone Temple Pilots
Title: No.4 Album

/ slide up
\ slide down
b bend
r release bend
p pull off
h hammer on

Palm mute bridge.

Tuning (eb A D G B E), (eb, D) Down ~ 10%
Key: (E + D) -> (E + A) or (D + C#)



Down



----|------------------------|--|----------|--------|
----|------------------------|--|----------|--------|
----|------------------------|--|----------|--------|
----|------------------------|--|----------|--------|
----|-7-5---5---7-7-5---5----|--|-10/12----|-12-----|
----|-6-----6-----6-----6----|--|-9-/11----|-11-----|
  

  Intro/Verse                                                                 



----|-----------------------------------|--|
----|-----------------------------------|--|
----|-----------------------------------|--|
----|-----------------------------------|--|
----|-6-7-10---7-6-5-5---5---5---5-7-5--|--|
----|-5-6-9----6-5-4-6-----6-----6-6-6--|--|


  Intro/Chorus                                                                



----|------------------------------|--|-----------------|--------|
----|------------------------------|--|-----------------|--------|
----|------------------------------|--|-----------------|--------|
----|------------------------------|--|-----------------|--------|
----|-7--5-----5---7-----7-----7---|--|----------12-15--|-12-----|
----|-6-----6---------6-----6------|--|-13/15-15--------|-11-----|


  Verse Pt. 2                


                                                 

----|-----------------------------------------------------|--|
----|-----------------------------------------------------|--|
----|-----------------------------------------------------|--|
----|---------------------5/7--7-7-7--5/7--7-7-7---7-7-7--|2x|
----|---------------------3/5--5-5-5--3/5--5-5-5---5-5-5--|--|
----|-6--5--4--3--2-4-2-----------------------------------|--|


  Bridge                                                                      

----|---------------------------|
----|---------------------------|
----|---------------------------|
----|---------------------------|
----|----------------4----------|
----|-9--8--7--6--5--3----------|
                                                                              




----|--------------------------|--|------------------|
----|--------------------------|--|------------------|
----|--------------------------|--|------------------|
----|-------------------21b----|--|------------------|
----|-7-5---5---17-21b--20b----|--|-7-5---5---5-7-5--|
----|-6-----6---16-20b---------|--|-6-----6---6-6-6--|
 

  Interlude                        End      
          

                        

----|-----------|
----|-----------|
----|-7---------|
----|-7---------|
----|-5---------|
----|-6---------|


      End Chord      






                 




Heaven & Hot Rods

                                        

----|-----------------------------------------------------------------|
----|-----------------------------------------------------------------|
----|-----------------------------------------------------------------|
----|-----------------------------------------------------------------|
----|-----------------------------------------------------------------|
----|-4-5-6-9-\-9-10-11-11-6-5-4--1-1-0-1-4-6-6--1-1-0-1-4-6-6--4-6-4-|


  Intro/Verse                                                                 




----|-------------------------------|--|
----|-------------------------------|--|
----|-7br-7-----------------5-5-5---|--|
----|-7br-7-----------------5-5-5---|--|
----|-----9---7-6-5--5-4-3--7---7---|--|
----|-------------------------------|--|


  Chorus                                                                      




----|---------------------------x-----|--|
----|-------7--------5----------8-----|--|
----|-------8--------6---7--7---7-----|--|
----|-------9--------7---7--7---5-----|--|
----|-------9--------7---5--5---5-----|--|
----|-8--8-----6--6------6--x---x-----|--|


  Bridge                                                                      








Pruno



----|----------------------------|--|
----|----------------------------|--|
----|----------------------------|--|
----|----------------------------|--|
----|-2br-2--0-2-0-3--5--5--5-5--|--|
----|--------------2--4-------6--|--|


  Intro/Chorus                                                                




----|---------|--|---------|
----|-3---1---|--|-3---3---|
----|-2---0---|--|-4---2---|
----|-0---2---|--|-4---2---|
----|-5---3---|--|-2---0---|
----|---------|--|---------|


  Verse Pick                                                                  





----|---------|--|---------|--|
----|-3-------|--|-3---3---|--|
----|-2-------|--|-4---2---|--|
----|-0-------|--|-4---2---|--|
----|-5-------|--|-2---0---|--|
----|---------|--|---------|--|


  Bridge                                                                      










Church On Tuesday



----|----------------------|--|
----|------4--2--4--4---4--|--|
----|------4--4--4----4----|2x|
----|-2/4--4--4--4---------|--|
----|----------------------|--|
----|----------------------|--|


  Intro   


                                                                    

----|------------------------------------|--|
----|-4br----4--4-------4--2--4---4---4--|--|
----|-----4--2--4-------4-----4-----4----|--|
----|--------------2/4-------------------|--|
----|------------------------------------|--|
----|------------------------------------|--|


  Verse                                                                       




----|--------------------x-|--|
----|--------------------9-|--|
----|--------------------9-|--|
----|--------------------9-|--|
----|-7------------------7-|--|
----|---14-13-12-11-10-9-x-|--|


  Bridge/Prechorus                                                            




----|---------------------------------------------|
----|---------------------------------------------|
----|---------------------------------------------|
----|---------------------------------------------|
----|-7-------------------------------------------|
----|---14-13-12-11-10-9-8-9-10-11-12-13-14-15-16-|


      Last Bridge End                                                         




----|-------------x----|--------------|--|
----|-------------9----|-7---5---4----|--|
----|-7---5-------9----|-7---5---4----|--|
----|-7---5---9---9----|-7---5---4----|--|
----|-5---7---9---7----|-5---3---2----|--|
----|-x---x---x---x----|--------------|--|


  Chorus Strum           Arpeggios                                            










Sour Girl



----|-------------------------------------------------------------------------
----|-------------------------------------------------------------------------
----|---------5---------------5--------------------------------------------5--
----|-5-----5---------------5----------------------3--3-3-5-5------------5----
----|-5-7-8-----7-------5-6-----5------------------3--3-3-5-5--3/5-5-7-8------
----|---------------9-9-------------8-8-9-9-9-9-8\-x--x-x-x-x-----------------


  Intro/Interlude                                                             

------------------------------------------------|
------------------------------------------------|
---------------5--------------------------------|
-------------5----------------------3--3-3-5-5--|
-7-------5-6-----5------------------3--3-3-5-5--|
-----9-9-------------8-8-9-9-9-9-8\-x--x-x-x-x--|
                                                                              




----|-5--5--------------------|--|
----|-3--6---6-----3---3--3---|--|
----|-0--5---5--2--4---5--4---|--|
----|-4--0---0--3--5---5--5---|--|
----|-------------------------|--|
----|-------------------------|--|


  Verse                                                                       




----|---------1----0----3----1----1---3---7---10---|
----|----6----1----1----0----1----1---0---0---0----|
----|----5----2----0----0----3----2---0---0---0----|
----|----0---------2----0----3----3---0---0---0----|
----|--------------3----2----1----3----------------|
----|-6-----------------4---------2----------------|


  Chorus                                                                      










No Way Out



----|-----------|--|---------------------------|--|
----|-5----1----|--|---------------------------|--|
----|-5----1----|--|--------4/5vv--------------|--|
----|-5----1----|--|---------------------------|--|
----|-3----3----|--|-6-6-6---------6-6-6---6---|--|
----|-----------|--|-7-7-7---------7-7-7---7---|--|


  Intro/Interlude                                                             




----|-------------------|--|----------------------------------------|
----|-------------------|--|----------------------------------------|
----|-------------------|--|----------------------------------------|
----|-----5br--5--5--5--|--|----------------------------------------|
----|-3---3br--3--3--3--|--|----------------------------------------|
----|-4--------4--4--4--|--|-4---4-----4---4-----4---4-----4---4----|


  Verse                                                                       




----|----------------------------|--|
----|----------------------------|--|
----|----------------------------|--|
----|----------------------------|--|
----|----------------------------|--|
----|-9-7-7--7--9-7-7--7--9-7-7--|--|


  Chorus                                                                      












Sex & Violence




----|-----------------------|--|
----|-3br--3--3br--3--3br-3-|--|
----|-3----0--3----0--3---0-|--|
----|-----------------------|--|
----|-----------------------|--|
----|-----------------------|--|


  Intro                                                                       




----|-----------------------------------------------------------------------|
----|-----------------------------------------------------------------------|
----|-----------------------------------------------------------------------|
----|-----------------------------------------------------------------------|
----|-----------------------------------------------------------------------|
----|-4-5-6-10--10-10-10-10-10-10-10-10-10-10--9-8-7-4--4-4-4-4-4-4-4-4-4-4-|


  Verse                                                                       





----|------------------|--|---------------------|-----------------------|--|
----|-5--3--5---3--5-3-|--|-5--5--5--5-5--5-5-5-|-5--5-5--5--5-5--5-5-5-|--|
----|-5--5--5---5--5-5-|--|-5--5--5--5-5--5-5-5-|-7--7-7--7--7-7--7-7-7-|--|
----|-5--5--5---5--5-5-|--|-5--5--5--5-5--5-5-5-|-7--7-7--7--7-7--7-7-7-|--|
----|------------------|--|---------------------|-----------------------|--|
----|------------------|--|---------------------|-----------------------|--|


  Bridge                                                                      





----|------------------|--|------------------|--|-------|
----|-3--3--3---3--3-3-|--|-7--7--7---7--7-7-|--|-------|
----|-3--2--3---2--3-2-|--|-7--5--7---5--7-5-|--|-------|
----|------------------|--|------------------|--|-------|
----|------------------|--|------------------|--|-------|
----|------------------|--|------------------|--|-------|


  Chorus                                          Intro                       














Glide



----|-------------------|--|
----|-------------------|--|
----|-4/6-6--6-6--7-7-7-|--|
----|-5/7-7--7-7--5-5-5-|--|
----|-------------------|--|
----|-------------------|--|


  Intro                                                                       




----|-----------------|--|
----|-2---0-----------|--|
----|-2---1---7---2---|--|
----|-2---2---7---4---|--|
----|-------------5---|--|
----|-----------------|--|


  Verse                                                                       




----|-------------|--|--------------------|
----|---------3---|--|--------------------|
----|---------2---|--|--------------------|
----|---------4---|--|--------------------|
----|-3-----------|--|-3-------10---------|
----|-2---4-------|--|-2---4---9-----3----|


  Chorus                                                                      




----|-----------------|--|----------|
----|-----------------|--|----------|
----|-4---4---7---2---|--|-2--------|
----|-2---2---7---4---|--|-2--------|
----|-------------5---|--|----------|
----|-----------------|--|----------|


  Mid Verse Change                                                            





----|-5\4/5----|--|
----|----------|--|
----|----------|--|
----|----------|--|
----|----------|--|
----|----------|--|


  Interlude w/ Mid Verse Riff                                                 





----|----------------------------------------------------|--|
----|-------2------------1-------------0-----------2-----|--|
----|-----2----2-------2----2--------2----2------2----2--|--|
----|---2------------2-------------2-----------2---------|--|
----|----------------------------------------0-----------|--|
----|-4------------3-------------2-----------------------|--|


  Bridge                                                                      


----|-------------------------|
----|-----2---2---2----3------|
----|---2---2---2---2--2------|
----|-------------------------|
----|-------------------------|
----|-4-----------------------|


  Bridge End                                                                  




----|-------------|----------------------------------|
----|-----3-------|----------------------------------|
----|-0---2-------|----------------------------------|
----|-2---0-------|----------------------------------|
----|-3---0-------|----------------------------------|
----|-------------|----------------------------------|


  End               Intro Acoustic Drop C# Tuning    


               







I Got You

     

----|----------------------------|
----|----------------------------|
----|-2---2----1---0----4--------|
----|-4---3----2---2----4--------|
----|----------------------------|
----|----------------------------|


  Intro/Solo/Interlude Chords (Acoustic Drop C# Tuning)                       




----|-2---3-----2---3-----4---3------4---3-----------------------------|
----|-3---1-----3---1-----5---1------5---1-----4----7----2--0---4------|
----|-2---2-----2---2-----4---0------4---0-----4----6----2--1---4------|
----|------------------------------------------4----4----2--2---4------|
----|------------------------------------------2----4----0--2---2------|
----|------------------------------------------------------------------|


  Verse                                                                       




----|----------------------------------|
----|-16---------------------11--------|
----|-16---------------------11--------|
----|-13---------------------11--------|
----|-14---------------------9---------|
----|----------------------------------|


  Chorus Pick                                                                 










MC5


----|-------------------------------------------------------------------------
----|-------------------------------------------------------------------------
----|-------------------------------------------------------------------------
----|-------------------------------------------------------------------------
----|---------------------------------------------------------------0---------
----|-13-16-13-16---13---16---13-16---13---16---13-16-13-16---13-------13-16--
  

  Verse     
                                                                  
--------------|--|
--------------|--|
--------------|--|
--------------|--|
--------------|--|
--13----16----|--|
                                                                              




----|--------------------------------------|--|
----|--------------------------------------|--|
----|--------------------------------------|--|
----|--------------------------------------|--|
----|--------------7-----------------------|--|
----|-8-11-11-8-11-------1-4b---1-4b---1---|--|


  Chorus                                                                      



----|-------------------|--|------------------------------|
----|-------------------|--|------------------------------|
----|-------------------|--|------------------------------|
----|-------------------|3x|------------------------------|
----|--------------12---|--|------------------------------|
----|-13-16-13-16-------|--|-6---9---11----12---11---9----|


  Break                                                                       



----|------------------|------------------------------------|--|
----|------------------|------------------------------------|--|
----|------------------|-3-5----3-4---3---3-5----3-4-4-3----|--|
----|------------------|------------------------------------|--|
----|--------------7---|------------------------------------|--|
----|-8-11-11-8-11-----|------------------------------------|--|


  Mid Chorus Break                                                            











Atlanta



----|-------------------------|--|
----|-------------------------|--|
----|-1-----2-----4-----2-----|--|
----|-2-----4-----5-----4-----|--|
----|-2-----------------------|--|
----|-------------------------|--|


  Verse (Acoustic Drop C# Tuning)                                             




----|---------------------|--|
----|-1----3----1----3----|--|
----|-2----2----0----0----|--|
----|-2----4----2----4----|--|
----|-----------3----5----|--|
----|---------------------|--|


  Chorus                                                                      




----|-------------------------------------------------------------------------
----|-3-----3-----2-----3-----3-----1-----3--------0--------3--------0--------
----|-4-----4-----3-----4-----2-----2-----3--------1--------3--------1--------
----|-4-----5-----4-----5-----0-----3-----3--------2--------3--------2--------
----|-2-----5-----4-----5-----0-----3-----1--------2--------1--------2--------
----|-------------------------------------------------------------------------


  Bridge                                                                      

--------------|
-3-----0------|
-3-----1------|
-3-----2------|
-1-----2------|
--------------|
                      


                                                        

----|----0------------------------------|
----|------1-----3-------1--------------|
----|--------------2-------0---------0--|
----|------------------------------4----|
----|-0-------5-------3-------3/5-------|
----|-----------------------------------|


  Chorus Pick                                                                 
Добавлено: 26.04.2016
Другие материалы по этой песне:
  • Аккорды и текст

Страница создана 26.04.2016
http://primanota.ru/stone-temple-pilots/no4-album-chords.htm
Привет, Гость.
Предлагаем пройти революционный курс по гитаре.
Подарок от PrimaNota.Ru, забирай!