PrimaNota.ru - самый крупный в мире бесплатный архив песенных текстов, аккордов, табулатур и нот


Stone Temple Pilots - Andy Warhol - таба, видео

Регистрация Запомнить меня
Войти через:  Facebook Google Twitter Vk Yandex Mail.ru

Stone Temple Pilots - Andy Warhol - таба, видео

Печатать
Просмотров: 121
Авторы музыки: David Bowie
Авторы текста: David Bowie
"Andy Warhol"
Stone Temple Pilots
(Bonus track on Japanese version of "Purple"
Standard Tuning (EADGBE)

A cover of David Bowie's "Andy Warhol" off of his album "Hunky Dory." If you have not 
either version, I am sure they can be found on Youtube.

x=mute
.=palm mute

INTRO (Play Intro 2x)
   E                                       C
e|-0-----0-0-----0-0-----------------------0-----0-0-----0-0----|
B|-0-----0-0-----0-0-----------------------1-----1-1-----1-1----|
G|-1-----1-1-----1-1-----------------------0-----0-0-----0-0----|
D|-2--x--2-2--x--2-2--x--------------2-4-5-2--x--2-2--x--2-2--x-|
A|-2--x--2-2--x--2-2--x--------0-2-3-0-0-0-3--x--3-3--x--3-3--x-|
E|-0--x--0-0--x--0-0--x--0-2-3-0-0-0----------x-------x-------x-|

e|---------------|
B|---------------|
G|---------------|
D|---------------|
A|-0-3-2-0-------|
E|---------3-2-0-|

VERSE
(Bass plays the single notes but I have included them in the tab for guitar because they 
fun to play. If you want to play it "correctly" keep hitting E5 power chords in the 
rythem instead of the single notes.)

   E5
e|----------------------------------------------------|
B|----------------------------------------------------|
G|----------------------------------------------------|
D|-2--2--2-2--2--2-2--2------0-2-4-5--2--2--2-2--2--2-|
A|-2--2--2-2--2--2-2--2--2-3----------2--2--2-2--2--2-|
E|-0--0--0-0--0--0-0--0---------------0--0--0-0--0--0-|
      .       .       .                  .       .

"Like to take a cement fix, be a standing cinema.

   A                        C   ?   Am  ?
e|--------------------------0---0---0---0-|
B|-2--2--2-2--2--2-2--2--2--1---1---1---1-|
G|-2--2--2-2--2--2-2--2--2--0---0---2---0-|
D|-2--2--2-2--2--2-2--2--2--2---0---2---0-|
A|-0--0--0-0--0--0-0--0--2--3---2---0---0-|
E|----------------------------------------|
      .       .       .

"Dress my friends up just for show, see them as they really are."

                         D       C                     D
e|------------------------------------------------------------------------|
B|-----------------------7--7--7-5--5--5-5--5--5-5--5--7--7---------------|
G|-----------------------7--7--7-5--5--5-5--5--5-5--5--7--7---------------|
D|-2--2--2-2--2--2-2--2--7--7--7-5--5--5-5--5--5-5--5--7--7---------------|
A|-2--2--2-2--2--2-2--2--5--5--5-3--3--3-3--3--3-3--3--5--5-0-3-2-0-------|
E|-0--0--0-0--0--0-0--0---------------------------------------------3-2-0-|
      .       .       .             .       .

PLAY LINE 1 & 2 OF VERSE AGAIN

"Put a peep-hole in my brain. Two new pence to have a go. I'd like to be a gallery, put 
all inside my show."


PLAY INTRO AGAIN AS PRE-CHORUS. (The E5s are not played as many times.)

CHORUS (Play twice and end with D chord)
   A     D     E5    D     A     D     G5    D
e|-0-----------------------0-----------------------|
B|-2-x-x-7-x-x---x-x-7-x-x-2-x-x-7-x-x---x-x-7-x-x-|
G|-2-x-x-7-x-x---x-x-7-x-x-2-x-x-7-x-x---x-x-7-x-x-|
D|-2-x-x-7-x-x-2-x-x-7-x-x-2-x-x-7-x-x-0-x-x-7-x-x-|
A|-0-----5-----2-----5-----0-----5-----2-----5-----|
E|-------------0-----------------------3-----------|

"Andy Warhol looks a scream, hang him on my wall. Andy Warhol silver screen, can't tell 
apart at all."

PLAY INTRO

PLAY VERSE

"Andy walking, Andy tired. Andy take a little snooze. Tie him up while he's fast asleep, 
him on a pleasant cruise. When he wakes up on the sea, be sure to think of me and you. 
think about paint and he'll think about glue, what a boring thing to do."

PLAY CHORUS

BASS SOLO (Go crazy with an E chord and end with a D chord.)

PLAY CHORUS, AND THAT IS THE WHOLE SONG!

Please rate and comment!
Добавлено: 01.10.2013
Другие материалы по этой песне:
  • Аккорды и текст

Страница создана 01.10.2013
http://primanota.ru/stone-temple-pilots/andy-warhol-chords.htm
Привет, Гость.
Предлагаем пройти революционный курс по гитаре.
Подарок от PrimaNota.Ru, забирай!