PrimaNota.ru - самый крупный в мире бесплатный архив песенных текстов, аккордов, табулатур и нот


Stone Temple Pilots - Tomorrow - таба, видео

Регистрация Запомнить меня
Войти через:  Facebook Google Twitter Vk Yandex Mail.ru

Stone Temple Pilots - Tomorrow - таба, видео

Печатать
Просмотров: 132
Stone Temple Pilots - "Tomorrow"
From the "High Rise" Ep
Open G tuning
Tabbed by jjhand

Tomorrow is another upbeat rock track from STP that has Dean using his
open G tuned guitar again. The ringing strings and unique chords are nice
touches. Please rate and comment.


Intro - let notes ring
d|-----0---3----------------|---------3------------------|
B|-0h1---1---3--------------|-----3-----3----------------|
G|-------------4br5-0-------|-3h5---5-----5-3------------|
D|--------------------------|----------------------------|
G|--------------------------|----------------------------|
D|--------------------------|----------------------------|


Verse Part 1 - played throughout lyrics 10x

d|-------------------------------|
B|---1-0---0-----1-0---0---0---0-|
G|---2-0---0-----2-0---0---0---0-|
D|-0-----0-0---0-----0-0---0---0-|
G|-0-----0-0---0-----0-0---0---0-|
D|-------------------------------|


Verse Part 2
|---------3--------3-----|------------------------|
|-4---4---3--------3-----|------------------------|
|-0---0---3--------3-----|---0--------0-----0-----|
|-3---3---3--------3-----|---0--------0-----0-----|
|-3---3---3-----3--3-----|-5/7---7--5-7-----7-----|
|------------------------|-3/5---5--3-5-----5-----|


Play Verse Part 1 again

Play Verse Part 2 again

Verse Part 3
|---------3--------3-----|--------------------|
|-4---4---3--------3-----|--------------------|
|-0---0---3--------3-----|-5/7---7---5-7---7--|
|-3---3---3--------3-----|-5/7---7---5-7---7--|
|-3---3---3-----3--3-----|-5/7---7---5-7---7--|
|------------------------|--------------------|




Chorus 

 play 3x
|-10/12----12-12-10-12---12-12---12-|--------------------------|
|-10/12----12-12-10-12---12-12---12-|--------------------------|
|-10/12----12-12-10-12---12-12---12-|-5----5---/7---7-7---7----|
|-10/12----12-12-10-12---12-12---12-|-3----3---/5---5-5---5----|
|-10/12----12-12-10-12---12-12---12-|-3----3---/5---5-5---5----|
|-----------------------------------|--------------------------|

Chorus Ending
|-----------------------------|--------------------------|
|-----------------------------|--------------------------|
|-5----5---/7---7-7---7-------|--------------------------|
|-3----3---/5---5-5---5-------|--------------------------|
|-3----3---/5---5-5---5-5-7-5-|-7------------------------|
|-----------------------3-5-3-|-5------------------------|



Play Verse Again


Play Chorus Again


Play Intro 3x


Solo - rhythm Guitar plays Verse Riff 2 3x, then Riff 3 once

|------------/7---------|-------------------------------|
|-6b8---8r6------6~---6-|-3-----------------------------|
|-----------------------|--5p3--5---3qb-----------------|
|-----------------------|-----5---5-----5p3-5~-0h3------|
|-----------------------|-------------------------5-3-0-|
|-----------------------|-------------------------------|


|-------------------------------------------|
|-13b15-b15-b15-15r13-b15~~~-15r13-11-13-11-|
|-------------------------------------------|
|-------------------------------------------|
|-------------------------------------------|
|-------------------------------------------|

|---------------------------------|-15--/17----17~~~----|
|---------------------------13/15-|---15----------------|
|-12-10-12b15-b15-b15gr12---------|---------------------|
|---------------------------------|---------------------|
|---------------------------------|---------------------|
|---------------------------------|---------------------|


|-17-15-----15-----------------------------|-----------|
|------15-13--13-15-13-11--13-11qb---------|-----------|
|------------------------12-------12-10-12~|-(12~~~)---|
|------------------------------------------|-----------|
|------------------------------------------|-----------|
|------------------------------------------|-----------|


Play Chorus Again to end song



KEY
************************************

| /   slide up
| \   slide down
| h   hammer-on
| p   pull-off
| ~   vibrato
| +   harmonic
| x   Mute note
| b   Bend
| pb  Pre-bend
| r   Bend release
| qb  quarter bend, slight increase in pitch 

************************************
Добавлено: 23.09.2013
Другие материалы по этой песне:
  • Аккорды и текст

Страница создана 23.09.2013
http://primanota.ru/stone-temple-pilots/tomorrow-chords.htm
Привет, Гость.
Предлагаем пройти революционный курс по гитаре.
Подарок от PrimaNota.Ru, забирай!