PrimaNota.ru - самый крупный в мире бесплатный архив песенных текстов, аккордов, табулатур и нот


Stone Sour - Trough the glass - текст песни, таба, видео

Регистрация Запомнить меня
Войти через:  Facebook Google Twitter Vk Yandex Mail.ru

Stone Sour - Trough the glass - текст песни, таба, видео

Печатать
Просмотров: 337


this is the right version, that i mean this is coreys play cause i donґt know the
two others play but this the actual corey- version.

your gonna need the chords in the chorus so this is the chords:

the tuning is Eb-Ab-Db-Gb-Bb-Eb but i am gonna  write chords anyway

C:x32003
D:000232
Em:022000

intro:

...throug...        Em
e|-----------------------------------------------
B|-------0------0--------------------------------
G|------------------------0------------0---------
D|-----5------7-------2-----2------2-----2-------
A|---3------5-----------2-----2------2-----2--0--
E|------------------0------------0---------------

                         E(m)
e|------------------------0----------------------
B|-------0-------0--------0----------------------
G|------------------------x----------------------
D|-----5------7-----------9----------------------
A|---3-----5--------------7----------------------
E|-----------------------------------------------


verse

e|---0-0---0---0-0--0-0----0-0---0----0-0---0|
B|---0-0---0---0-0--0-0----0-0---0----0-0---0|
G|-x-x-x-x-x-x-x-x--x-x--x-x-x-x-x--x-x-x-x--|2x
D|-9-9-9-9-9-9-9-9--7-7--5-5-5-5-5--7-7-7-7-7|
A|-7-7-7-7-7-7-7-7--5-5--3-3-3-3-3--5-5-5-5-5|
E|-------------------------------------------|


chorus:
                   C
iґm looking at you trough the glass, donґt know
         D
how much time has passed, all i know is that it
Em                                        D
feels like forever, when no one ever tells you
         C                    D
that for ever fels like home, sitting all alone
         (last note before verse in intro)
insde your head.

verse

chorus

and the tabs is the same n the rest of the song and if it isnґt then itґs just pretty easy to figure out.

hope you enjoy it

Добавлено: 07.10.2013
Другие материалы по этой песне:
  • Аккорды и текст

Страница создана 07.10.2013
http://primanota.ru/stone-sour/trough-the-glass-chords.htm
Привет, Гость.
Предлагаем пройти революционный курс по гитаре.
Подарок от PrimaNota.Ru, забирай!