PrimaNota.ru - самый крупный в мире бесплатный архив песенных текстов, аккордов, табулатур и нот


Stone Sour - Peckinpah - таба, бас-таба, видео

Регистрация Запомнить меня
Войти через:  Facebook Google Twitter Vk Yandex Mail.ru

Stone Sour - Peckinpah - таба, бас-таба, видео

Печатать
Просмотров: 240
-------------------------------------------------------------------------------
                             PECKINPAH - Stone Sour
-------------------------------------------------------------------------------

Song Name: Peckinpah
Artist Name: Stone Sour
Album Name: House of Gold and Bones Part 2

Tabbed by: chairman_tom
E-mail: tomholloway00@gmail.com

Tuning: D Standard (DGCFAD)

I'm tabbing out Jim Root's part in the song just so you know...
Also this is my first tab so feedback is appreciated!

Intro:
d|---------------------------------------------------------------------------|
A|---------------------------------------------------------------------------|
F|------------6~------------7~------------6~---------------------------------|
C|---------5-------------5-------------5-------10~---9~---5~-----------------|
G|------7-------------7-------------7-----------8~---7~---3~-----------------|
D|---0-------------0-------------0-------------------------------------------|

d|---------------------------------------------------------------------------|
A|---------------------------------------------------------------------------|
F|------------6~------------7~------------6~---------------------------------|
C|---------5-------------5-------------5-------------------10~---9~---5~-----|
G|------7-------------7-------------7-------------3--7------8~---7~---3~-----|
D|---0-------------0-------------0-------------/5----------------------------|

Verse: (Play this throughout the verse)
d|---------------------------------------------------------------------------|
A|---------------------------------------------------------------------------|
F|------------6~------------7~------------6~---------------------------------|
C|---------5-------------5-------------5--------7~---5~---3~-----------------|
G|------7-------------7-------------7-----------8~---7~---5~-----------------|
D|---0-------------0-------------0-------------------------------------------|

Pre Chorus: (Prepare to crucify...)
d|---------------------------------------------------------------------------|
A|---------------------------------------------------------------------------|
F|---------------------------------------------------------------------------|
C|--------------10-----9-----5~----------------------------------------------|
G|-------3--7----8-----7-----3~--------5------7----7h8-----------------------|
D|---/5------------0-0---0-0------0000---0000---00---------------------------|
P.M.               ...   ...      ....   ....   ..

d|---------------------------------------------------------------------------|
A|---------------------------------------------------------------------------|
F|---------------------------------------------------------------------------|
C|---------------------------------------------------------------------------|
G|--------7----10p8p7----8p7-------------------------------------------------|
D|---0000---00--------10-----10p8--------------------------------------------|
P.M  ....   ..

d|---------------------------------------------------------------------------|
A|---------------------------------------------------------------------------|
F|-----------------------------------------7---------------------------------|
C|------------------------------------7----x---------------------------------|
G|--------5------7----7h8------7------8----5---------------------------------|
D|---0000---0000---00-----0000---0000---00-----------------------------------|
P.M. ....   ....   ..     ....   ....   ..

d|---------------------------------------------------------------------------|
A|---------------------------------------------------------------------------|
F|---------------------------------------------------------------------------|
C|---------------------------------------------------------------------------|
G|----------5------7----7h8------7----10p8p7----8p7--------------------------|
D|-----0000---0000---00-----0000---00--------10-----10p8---------------------|
P.M.   ....   ....   ..     ....   ..

d|---------------------------------------------------------------------------|
A|---------------------------------------------------------------------------|
F|---------------------------------------------------------------------------|
C|------------------------------------7----7---------------------------------|
G|--------5------7----7h8------7------8----8---------------------------------|
D|---0000---0000---00-----0000---0000---00-----------------------------------|
P.M. ....   ....   ..     ....   ....   ..

Chorus: (I'm seeing what the problem is...)
d|---------------------------------------------------------------------------|
A|---------------------------------------------------------------------------|
F|---------4-------5~----7~----/9----7----5~~--------------------------------|
C|------2--------------------------------------------------------------------|
G|---0----------0-----0-----0-----0----0-------------------------------------|
D|---------------------------------------------------------------------------|

d|---------------------------------------------------------------------------|
A|---------------------------------------------------------------------------|
F|---------------------------------------------------------------------------|
C|---------5-----/7--5--3~--3h5p3-2h3--2h3p2-----2h3-------------------------|
G|------3-----3-------------------------------5------------------------------|
D|---1-----------------------------------------------------------------------|

d|---------------------------------------------------------------------------|
A|---------------------------------------------------------------------------|
F|---------4------5~----/9--7h9p7-5h7--5h7p5--4h5h7--------------------------|
C|------2--------------------------------------------------------------------|
G|---0----------0----0-------------------------------------------------------|
D|---------------------------------------------------------------------------|

d|---------------------------------------------------------------------------|
A|---------------------------------------------------------------------------|
F|---------------------------------------------------------------------------|
C|---------5-----/7--5--3~--3h5p3-2h3--2h3p2-----2h3-------------------------|
G|------3-----3-------------------------------5------------------------------|
D|---1-----------------------------------------------------------------------|

Post Chorus: 
d|---------------------------------------------------------------------------|
A|---------------------------------------------------------------------------|
F|---9(trem.)--9b10(trem.)--9(trem.)--9b10(trem.)--9(trem.)--9b10(trem.)-----|
C|---------------------------------------------------------------------------|
G|---------------------------------------------------------------------------|
D|---------------------------------------------------------------------------|

d|---------------------------------------------------------------------------|
A|---------------------------------------------------------------------------|
F|---------------------------------------------------------------------------|
C|--10~---9~---5~------------------------------------------------------------|
G|---8~---7~---3~------------------------------------------------------------|
D|---------------------------------------------------------------------------|

d|---------------------------------------------------------------------------|
A|---------------------------------------------------------------------------|
F|---9(trem.)--9b10(trem.)--9(trem.)--9b10(trem.)--9(trem.)--9b10(trem.)-----|
C|---------------------------------------------------------------------------|
G|---------------------------------------------------------------------------|
D|---------------------------------------------------------------------------|

d|---------------------------------------------------------------------------|
A|---------------------------------------------------------------------------|
F|---------------------------------------------------------------------------|
C|-------------10~---9~---5~-------------------------------------------------|
G|-------3--7---8~---7~---3~-------------------------------------------------|
D|---/5----------------------------------------------------------------------|

Verse: 
d|---------------------------------------------------------------------------|
A|---------------------------------------------------------------------------|
F|------------6~------------7~------------6~---------------------------------|
C|---------5-------------5-------------5--------7~---5~---3~-----------------|
G|------7-------------7-------------7-----------8~---7~---5~-----------------|
D|---0-------------0-------------0-------------------------------------------|

Pre Chorus: (Prepare to crucify...)
d|---------------------------------------------------------------------------|
A|---------------------------------------------------------------------------|
F|---------------------------------------------------------------------------|
C|--------------10-----9-----5~----------------------------------------------|
G|-------3--7----8-----7-----3~--------5------7----7h8-----------------------|
D|---/5------------0-0---0-0------0000---0000---00---------------------------|
P.M.               ...   ...      ....   ....   ..

d|---------------------------------------------------------------------------|
A|---------------------------------------------------------------------------|
F|---------------------------------------------------------------------------|
C|---------------------------------------------------------------------------|
G|--------7----10p8p7----8p7-------------------------------------------------|
D|---0000---00--------10-----10p8--------------------------------------------|
P.M  ....   ..

d|---------------------------------------------------------------------------|
A|---------------------------------------------------------------------------|
F|-----------------------------------------7---------------------------------|
C|------------------------------------7----x---------------------------------|
G|--------5------7----7h8------7------8----5---------------------------------|
D|---0000---0000---00-----0000---0000---00-----------------------------------|
P.M. ....   ....   ..     ....   ....   ..

d|---------------------------------------------------------------------------|
A|---------------------------------------------------------------------------|
F|---------------------------------------------------------------------------|
C|---------------------------------------------------------------------------|
G|----------5------7----7h8------7----10p8p7----8p7--------------------------|
D|-----0000---0000---00-----0000---00--------10-----10p8---------------------|
P.M.   ....   ....   ..     ....   ..

d|---------------------------------------------------------------------------|
A|---------------------------------------------------------------------------|
F|---------------------------------------------------------------------------|
C|------------------------------------7----7---------------------------------|
G|--------5------7----7h8------7------8----8---------------------------------|
D|---0000---0000---00-----0000---0000---00-----------------------------------|
P.M. ....   ....   ..     ....   ....   ..

Chorus: (I'm seeing what the problem is...)
d|---------------------------------------------------------------------------|
A|---------------------------------------------------------------------------|
F|---------4-------5~----7~----/9----7----5~~--------------------------------|
C|------2--------------------------------------------------------------------|
G|---0----------0-----0-----0-----0----0-------------------------------------|
D|---------------------------------------------------------------------------|

d|---------------------------------------------------------------------------|
A|---------------------------------------------------------------------------|
F|---------------------------------------------------------------------------|
C|---------5-----/7--5--3~--3h5p3-2h3--2h3p2-----2h3-------------------------|
G|------3-----3-------------------------------5------------------------------|
D|---1-----------------------------------------------------------------------|

d|---------------------------------------------------------------------------|
A|---------------------------------------------------------------------------|
F|---------4------5~----/9--7h9p7-5h7--5h7p5--4h5h7--------------------------|
C|------2--------------------------------------------------------------------|
G|---0----------0----0-------------------------------------------------------|
D|---------------------------------------------------------------------------|

d|---------------------------------------------------------------------------|
A|---------------------------------------------------------------------------|
F|---------------------------------------------------------------------------|
C|---------5-----/7--5--3~--3h5p3-2h3--2h3p2-----2h3-------------------------|
G|------3-----3-------------------------------5------------------------------|
D|---1-----------------------------------------------------------------------|

Bridge: x4
d|---------------------------------------------------------------------------|
A|---------------------------------------------------------------------------|
F|---------------------------------------------------------------------------|
C|-------------------------9----7----5---------------------------------------|
G|---------8-----7-----3---7----5----3--5-5~---------------------------------|
D|---0--5-----5-----5--------00---00----3-3~---------------------------------|

d|---------------------------------------------------------------------------|
A|---------------------------------------------------------------------------|
F|---------------------------------------------------------------------------|
C|------------------------10----9----5---7-7~--------------------------------|
G|---------8-----7-----3---8----7----3---5-5~--------------------------------|
D|---0--5-----5-----5--------00---00-----------------------------------------|

Solo:
d|---------------------------------------------------------------------------|
A|---------------------------------------------------------------------------|
F|---7h9-7h9-7h9-7h9-7h9-7h9-7h9-7h9-7h9-7h9-7h9-7h9-7h9-7h9-7h9-7h9---------|
C|---------------------------------------------------------------------------|
G|---------------------------------------------------------------------------|
D|---------------------------------------------------------------------------|

d|---------------------------7h8h10/12p10p8\7h8h10h8h7-----------------------|
A|--------------------7h8h10---------------------------10p8p7----------------|
F|---7h9-7h9-7h9-7h9---------------------------------------------------------|
C|---------------------------------------------------------------------------|
G|---------------------------------------------------------------------------|
D|---------------------------------------------------------------------------|

d|--------------------------------191919191919151515151515171717171717121212-|
A|---------------------------------------------------------------------------|
F|---9p7p5\4h5h7p5p4----4----------------------------------------------------|
C|--------------------7---7p5p4----------------------------------------------|
G|---------------------------------------------------------------------------|
D|---------------------------------------------------------------------------|

d|---12121215151515101010101212121212121515151515157777--7h8h10p8p7----------|
A|------------------------------------------------------------------10p8p7---|
F|---------------------------------------------------------------------------|
C|---------------------------------------------------------------------------|
G|---------------------------------------------------------------------------|
D|---------------------------------------------------------------------------|

d|---------------------------------------------------------------------------|
A|---------------------------------------------------------------------------|
F|---9p7p5\4h5h7p5p4---------------------------------------------------------|
C|-------------------7p5p4---------------------------------------------------|
G|-------------------------0~~~----------------------------------------------|
D|---------------------------------------------------------------------------|

Chorus: Play x2 (I'm seeing what the problem is...)
d|---------------------------------------------------------------------------|
A|---------------------------------------------------------------------------|
F|---------4-------5~----7~----/9----7----5~~--------------------------------|
C|------2--------------------------------------------------------------------|
G|---0----------0-----0-----0-----0----0-------------------------------------|
D|---------------------------------------------------------------------------|

d|---------------------------------------------------------------------------|
A|---------------------------------------------------------------------------|
F|---------------------------------------------------------------------------|
C|---------5-----/7--5--3~--3h5p3-2h3--2h3p2-----2h3-------------------------|
G|------3-----3-------------------------------5------------------------------|
D|---1-----------------------------------------------------------------------|

d|---------------------------------------------------------------------------|
A|---------------------------------------------------------------------------|
F|---------4------5~----/9--7h9p7-5h7--5h7p5--4h5h7--------------------------|
C|------2--------------------------------------------------------------------|
G|---0----------0----0-------------------------------------------------------|
D|---------------------------------------------------------------------------|

d|---------------------------------------------------------------------------|
A|---------------------------------------------------------------------------|
F|---------------------------------------------------------------------------|
C|---------5-----/7--5--3~--3h5p3-2h3--2h3p2-----2h3-------------------------|
G|------3-----3-------------------------------5------------------------------|
D|---1-----------------------------------------------------------------------|

Intro:
d|---------------------------------------------------------------------------|
A|---------------------------------------------------------------------------|
F|------------6~------------7~------------6~---------------------------------|
C|---------5-------------5-------------5-------10~---9~---5~-----------------|
G|------7-------------7-------------7-----------8~---7~---3~-----------------|
D|---0-------------0-------------0-------------------------------------------|

d|---------------------------------------------------------------------------|
A|---------------------------------------------------------------------------|
F|------------6~------------7~------------6~---------------------------------|
C|---------5-------------5-------------5-------------------10~---9~---5~-----|
G|------7-------------7-------------7-------------3--7------8~---7~---3~-----|
D|---0-------------0-------------0-------------/5----------------------------|

Thats it! Thanks for viewing!

************************************

| /   slide up
| \   slide down
| h   hammer-on
| p   pull-off
| ~   vibrato
| +   harmonic
| x   Mute note
| b   Bend
| pb  Pre-bend
| br  Bend release
| pbr Pre-bend release
| brb Bend release bend

************************************
Добавлено: 31.03.2015
Другие материалы по этой песне:

Страница создана 31.03.2015
http://primanota.ru/stone-sour/peckinpah-chords.htm
Привет, Гость.
Предлагаем пройти революционный курс по гитаре.
Подарок от PrimaNota.Ru, забирай!