PrimaNota.ru - самый крупный в мире бесплатный архив песенных текстов, аккордов, табулатур и нот


Stone Sour - The Travelers Part 2 - таба, видео

Регистрация Запомнить меня
Войти через:  Facebook Google Twitter Vk Yandex Mail.ru

Stone Sour - The Travelers Part 2 - таба, видео

Печатать
Просмотров: 283
     The travelers part 2                       guitar 1- Josh Rand               
    Half step down                               guitar 2- Jim Root( plays 1 
string higher than guitar 1) notes shown as * 
guitar 3- Corey Taylor ( grand piano tabbed for acoustic)
guitar 1      
e|------*/*----*---*---*----*--------|------*/*---*---*---*----*---------------|
B|----10/12--12--12--10--10--*----*--|----10/12--12--12--10--10--*----13-------|
G|---------------------------11--12--|---------------------------11------------|
D|-----------------------------------|-----------------------------------------|
A|-----------------------------------|-----------------------------------------|
E|-----------------------------------|-----------------------------------------|
                                     ^3 sec. Pause                 3 sec. pause^
e|-----*/*----*---*---*----*---------|------*/*----*---*---*----*--------------|
B|----10/12--12--12--10--10--*----*--|----10/12--12--12--10--10--*---13--------|
G|---------------------------11--12--|---------------------------11------------|
D|-----------------------------------|-----------------------------------------|
A|-----------------------------------|-----------------------------------------|
E------------------------------------|-----------------------------------0--0--|
guitar 1                             ^3 sec. pause
e|----*----*---*----*-----------------*---*---*----*---------------------------|   
B|----12--12--10--10---*---*--------12--12--10--10--*--*-----------------------|    
G|---------------------10--12-----------------------10--12---------------------| 4x
D|-----------------------------------------------------------------------------|    
A|-----------------------------------------------------------------------------|    
E|----------------------------0--0--------------------------0--0---------------|    
guitar 2                   guitar 1                                            ^exclude this part
e|--------------------|    e|----------|                                        last time
B|-----------7--------|    B|----------|
G|-------12-----12----|7x  G|----5-----|
D|----9---------------|    D|----5-----|
A|--------------------|    A|----3-----|
E|--------------------|    E|----------|
guitar2                    
e|--------------------|    
B|-----------7--------|    
G|-------12-----12----|3x  
D|----9---------------|    
A|--------------------|    
E|--------------------|    
guitar 1   3 sec between notes
e|---------------------------------------------------------------------------| 
B|---------------------------------------------------------------------------|
G|----5----7----5--7--5------------------------------------------------------|
D|----5----7----5--7--5------------------------------------------------------| 
A|----3----5----3--5--3------------------------------------------------------|
E|---------------------------------------------------------------------------|
guitar 1                                                  | play note for 6 sec  
e|--------------------------------------------------------|------------------|
B|--------------------------------------------------------|------------------|
G|----7----5/7--7--7----5----3/5--5--5----7----5/7--7--7--|-5----------------|
D|----7----5/7--7--7----5----3/5--5--5----7----5/7--7--7--|-5----------------|
A|----5----3/5--5--5----3----1/3--3--3----5----3/5--5--5--|-3----------------|
E|--------------------------------------------------------|------------------|
guitar 1 (palm muted)
e|----------------------------------------------------------------------------|
B|----------------------------------------------------------------------------|      
G|----------------------------------------------------------------------------|
D|----5--5--5--5--5--5--5--5--7--7--7--7--7--7--7--7--5--5--5--5--5--5--5--5--|
A|----5--5--5--5--5--5--5--5--7--7--7--7--7--7--7--7--5--5--5--5--5--5--5--5--|
E|----3--3--3--3--3--3--3--3--5--5--5--5--5--5--5--5--3--3--3--3--3--3--3--3--|
guitar 1
e|-----------------------------------------------------------------------------|
B|-----------------------------------------------------------------------------|
G|----7--7--7--7--7--7--7--7----5----5--5--5--5----7----7--7--7--7-------------|
D|----7--7--7--7--7--7--7--7----5----5--5--5--5----7----7--7--7--7-------------|
A|----5--5--5--5--5--5--5--5----3----3--3--3--3----5----5--5--5--5-------------|
E|-----------------------------------------------------------------------------|
guitar 1
e|------------------------------------------------*---*---*----*-----------------|
B|-----------------------------------------------12--12--10--10--*---*-----------|
G|----5----5--5--5--5----7----7--7--7--7------------------------10--12-----------|
D|----5----5--5--5--5----7----7--7--7--7-----------------------------------------|
A|----3----3--3--3--3----5----5--5--5--5-----------------------------------------|
E|----------------------------------------0--0---------------------------0--0----|

guitar 1
e|-----*---*---*---*-------------------*---*---*---*---------------------------|
B|----12--12--10--10--*---*----------12--12--10--10--*--*----------------------|
G|--------------------10--12-------------------------10--12--------------------|
D|-----------------------------------------------------------------------------|
A|-----------------------------------------------------------------------------|
E|-----------------------------0--0---------------------------0--0-------------|
                                                              ^ let ring 3 sec
Добавлено: 03.12.2013
Другие материалы по этой песне:

Страница создана 25.08.2013
http://primanota.ru/stone-sour/the-travelers-part-2-chords.htm
Привет, Гость.
Предлагаем пройти революционный курс по гитаре.
Подарок от PrimaNota.Ru, забирай!